999
"DXF R12 Output" (www.mydxf.blogspot.com)
 0 
SECTION
 2 
HEADER
 9 
$ACADVER
 1 
AC1009
 9 
$EXTMIN
 10 
 0 
 20 
 0 
 9 
$EXTMAX
 10 
 8.5 
 20 
 11 
 0 
ENDSEC
 0 
SECTION
 2 
ENTITIES
0
LINE
8
Layer 1
10
114.900000
20
214.637000
11
108.292300
21
212.637930
0
LINE
8
Layer 1
10
108.292300
20
212.637930
11
107.932690
21
214.281890
0
LINE
8
Layer 1
10
107.932690
20
214.281890
11
107.648010
21
215.820660
0
LINE
8
Layer 1
10
107.648010
20
215.820660
11
101.369940
21
212.940410
0
LINE
8
Layer 1
10
101.369940
20
212.940410
11
95.106860
21
210.060180
0
LINE
8
Layer 1
10
95.106860
20
210.060180
11
93.668450
21
211.954030
0
LINE
8
Layer 1
10
93.668450
20
211.954030
11
92.110170
21
213.847880
0
LINE
8
Layer 1
10
92.110170
20
213.847880
11
87.195600
21
210.362670
0
LINE
8
Layer 1
10
87.195600
20
210.362670
11
82.266040
21
206.877450
0
LINE
8
Layer 1
10
82.266040
20
206.877450
11
81.561820
21
208.166320
0
LINE
8
Layer 1
10
81.561820
20
208.166320
11
80.797670
21
209.876050
0
LINE
8
Layer 1
10
80.797670
20
209.876050
11
80.602880
21
210.310060
0
LINE
8
Layer 1
10
80.602880
20
210.310060
11
75.178870
21
205.891070
0
LINE
8
Layer 1
10
75.178870
20
205.891070
11
69.664960
21
201.485230
0
LINE
8
Layer 1
10
69.664960
20
201.485230
11
68.016780
21
203.392230
0
LINE
8
Layer 1
10
68.016780
20
203.392230
11
66.353620
21
205.233480
0
LINE
8
Layer 1
10
66.353620
20
205.233480
11
62.982340
21
201.445770
0
LINE
8
Layer 1
10
62.982340
20
201.445770
11
59.700960
21
197.723830
0
LINE
8
Layer 1
10
59.700960
20
197.723830
11
56.944010
21
198.881180
0
LINE
8
Layer 1
10
56.944010
20
198.881180
11
54.112000
21
199.986000
0
LINE
8
Layer 1
10
54.112000
20
199.986000
11
53.003220
21
196.014170
0
LINE
8
Layer 1
10
53.003220
20
196.014170
11
51.894440
21
191.910830
0
LINE
8
Layer 1
10
51.894440
20
191.910830
11
51.703401
21
191.891101
0
LINE
8
Layer 1
10
51.703401
20
191.891101
11
51.265135
21
192.187010
0
LINE
8
Layer 1
10
51.265135
20
192.187010
11
48.658015
21
194.120320
0
LINE
8
Layer 1
10
48.658015
20
194.120320
11
48.073660
21
192.318530
0
LINE
8
Layer 1
10
48.073660
20
192.318530
11
45.646340
21
183.533160
0
LINE
8
Layer 1
10
45.646340
20
183.533160
11
43.458760
21
184.085530
0
LINE
8
Layer 1
10
43.458760
20
184.085530
11
41.271180
21
184.637900
0
LINE
8
Layer 1
10
41.271180
20
184.637900
11
41.331110
21
177.483350
0
LINE
8
Layer 1
10
41.331110
20
177.483350
11
41.435994
21
170.381400
0
LINE
8
Layer 1
10
41.435994
20
170.381400
11
40.941540
21
168.592760
0
LINE
8
Layer 1
10
40.941540
20
168.592760
11
39.899342
21
165.321953
0
LINE
8
Layer 1
10
39.899342
20
165.321953
11
38.649775
21
162.292039
0
LINE
8
Layer 1
10
38.649775
20
162.292039
11
37.210220
21
159.526906
0
LINE
8
Layer 1
10
37.210220
20
159.526906
11
35.598061
21
157.050444
0
LINE
8
Layer 1
10
35.598061
20
157.050444
11
33.830681
21
154.886540
0
LINE
8
Layer 1
10
33.830681
20
154.886540
11
31.925462
21
153.059082
0
LINE
8
Layer 1
10
31.925462
20
153.059082
11
29.899788
21
151.591959
0
LINE
8
Layer 1
10
29.899788
20
151.591959
11
27.771040
21
150.509060
0
LINE
8
Layer 1
10
27.771040
20
150.509060
11
25.712689
21
149.876129
0
LINE
8
Layer 1
10
25.712689
20
149.876129
11
23.305970
21
149.588430
0
LINE
8
Layer 1
10
23.305970
20
149.588430
11
22.000536
21
149.552253
0
LINE
8
Layer 1
10
22.000536
20
149.552253
11
21.582870
21
149.812010
0
LINE
8
Layer 1
10
21.582870
20
149.812010
11
20.680117
21
150.746197
0
LINE
8
Layer 1
10
20.680117
20
150.746197
11
19.541374
21
151.594076
0
LINE
8
Layer 1
10
19.541374
20
151.594076
11
18.262161
21
152.293998
0
LINE
8
Layer 1
10
18.262161
20
152.293998
11
16.938000
21
152.784310
0
LINE
8
Layer 1
10
16.938000
20
152.784310
11
15.758055
21
153.039126
0
LINE
8
Layer 1
10
15.758055
20
153.039126
11
14.510680
21
153.047350
0
LINE
8
Layer 1
10
14.510680
20
153.047350
11
12.850092
21
152.784312
0
LINE
8
Layer 1
10
12.850092
20
152.784312
11
11.429707
21
152.146451
0
LINE
8
Layer 1
10
11.429707
20
152.146451
11
10.231267
21
151.123902
0
LINE
8
Layer 1
10
10.231267
20
151.123902
11
9.236510
21
149.706800
0
LINE
8
Layer 1
10
9.236510
20
149.706800
11
8.700851
21
148.588899
0
LINE
8
Layer 1
10
8.700851
20
148.588899
11
8.592221
21
147.628820
0
LINE
8
Layer 1
10
8.592221
20
147.628820
11
8.674631
21
146.736145
0
LINE
8
Layer 1
10
8.674631
20
146.736145
11
9.026741
21
145.932240
0
LINE
8
Layer 1
10
9.026741
20
145.932240
11
9.571530
21
145.157726
0
LINE
8
Layer 1
10
9.571530
20
145.157726
11
10.294715
21
144.441162
0
LINE
8
Layer 1
10
10.294715
20
144.441162
11
11.144324
21
143.825703
0
LINE
8
Layer 1
10
11.144324
20
143.825703
11
12.068381
21
143.354500
0
LINE
8
Layer 1
10
12.068381
20
143.354500
11
13.662713
21
142.697323
0
LINE
8
Layer 1
10
13.662713
20
142.697323
11
14.608076
21
142.151114
0
LINE
8
Layer 1
10
14.608076
20
142.151114
11
15.418589
21
141.308990
0
LINE
8
Layer 1
10
15.418589
20
141.308990
11
16.608371
21
139.764070
0
LINE
8
Layer 1
10
16.608371
20
139.764070
11
19.932821
21
135.726480
0
LINE
8
Layer 1
10
19.932821
20
135.726480
11
23.425841
21
132.359630
0
LINE
8
Layer 1
10
23.425841
20
132.359630
11
27.345184
21
129.213688
0
LINE
8
Layer 1
10
27.345184
20
129.213688
11
31.530012
21
126.475865
0
LINE
8
Layer 1
10
31.530012
20
126.475865
11
36.049155
21
124.105474
0
LINE
8
Layer 1
10
36.049155
20
124.105474
11
40.971441
21
122.061830
0
LINE
8
Layer 1
10
40.971441
20
122.061830
11
45.242425
21
120.650688
0
LINE
8
Layer 1
10
45.242425
20
120.650688
11
49.551335
21
119.590944
0
LINE
8
Layer 1
10
49.551335
20
119.590944
11
54.492373
21
118.760533
0
LINE
8
Layer 1
10
54.492373
20
118.760533
11
60.659741
21
118.037390
0
LINE
8
Layer 1
10
60.659741
20
118.037390
11
64.375641
21
117.629690
0
LINE
8
Layer 1
10
64.375641
20
117.629690
11
64.543034
21
117.572154
0
LINE
8
Layer 1
10
64.543034
20
117.572154
11
64.512364
21
117.425839
0
LINE
8
Layer 1
10
64.512364
20
117.425839
11
63.626468
21
116.551240
0
LINE
8
Layer 1
10
63.626468
20
116.551240
11
62.494046
21
115.339428
0
LINE
8
Layer 1
10
62.494046
20
115.339428
11
61.759154
21
114.175704
0
LINE
8
Layer 1
10
61.759154
20
114.175704
11
61.437245
21
113.098287
0
LINE
8
Layer 1
10
61.437245
20
113.098287
11
61.543768
21
112.145400
0
LINE
8
Layer 1
10
61.543768
20
112.145400
11
61.832902
21
111.683239
0
LINE
8
Layer 1
10
61.832902
20
111.683239
11
62.306051
21
111.229709
0
LINE
8
Layer 1
10
62.306051
20
111.229709
11
63.461648
21
110.619800
0
LINE
8
Layer 1
10
63.461648
20
110.619800
11
74.139213
21
110.475134
0
LINE
8
Layer 1
10
74.139213
20
110.475134
11
85.097748
21
110.606700
0
LINE
8
Layer 1
10
85.097748
20
110.606700
11
86.172282
21
110.873562
0
LINE
8
Layer 1
10
86.172282
20
110.873562
11
87.215561
21
111.308879
0
LINE
8
Layer 1
10
87.215561
20
111.308879
11
88.210379
21
111.897395
0
LINE
8
Layer 1
10
88.210379
20
111.897395
11
89.139528
21
112.623850
0
LINE
8
Layer 1
10
89.139528
20
112.623850
11
90.731987
21
114.429546
0
LINE
8
Layer 1
10
90.731987
20
114.429546
11
91.360882
21
115.478270
0
LINE
8
Layer 1
10
91.360882
20
115.478270
11
91.855278
21
116.603900
0
LINE
8
Layer 1
10
91.855278
20
116.603900
11
92.199898
21
117.577130
0
LINE
8
Layer 1
10
92.199898
20
117.577130
11
114.465000
21
117.577000
0
LINE
8
Layer 1
10
114.465000
20
117.577000
11
136.731000
21
117.577000
0
LINE
8
Layer 1
10
136.731000
20
117.577000
11
135.652190
21
116.616920
0
LINE
8
Layer 1
10
135.652190
20
116.616920
11
134.751105
21
115.687076
0
LINE
8
Layer 1
10
134.751105
20
115.687076
11
134.073543
21
114.736425
0
LINE
8
Layer 1
10
134.073543
20
114.736425
11
133.623892
21
113.800878
0
LINE
8
Layer 1
10
133.623892
20
113.800878
11
133.406544
21
112.916345
0
LINE
8
Layer 1
10
133.406544
20
112.916345
11
133.425887
21
112.118737
0
LINE
8
Layer 1
10
133.425887
20
112.118737
11
133.686313
21
111.443965
0
LINE
8
Layer 1
10
133.686313
20
111.443965
11
134.192211
21
110.927939
0
LINE
8
Layer 1
10
134.192211
20
110.927939
11
134.947970
21
110.606570
0
LINE
8
Layer 1
10
134.947970
20
110.606570
11
147.968570
21
110.501350
0
LINE
8
Layer 1
10
147.968570
20
110.501350
11
160.374870
21
110.540850
0
LINE
8
Layer 1
10
160.374870
20
110.540850
11
161.213940
21
110.909100
0
LINE
8
Layer 1
10
161.213940
20
110.909100
11
162.039906
21
111.369409
0
LINE
8
Layer 1
10
162.039906
20
111.369409
11
162.832160
21
111.987540
0
LINE
8
Layer 1
10
162.832160
20
111.987540
11
163.697684
21
113.003103
0
LINE
8
Layer 1
10
163.697684
20
113.003103
11
164.418529
21
114.252933
0
LINE
8
Layer 1
10
164.418529
20
114.252933
11
164.911814
21
115.557013
0
LINE
8
Layer 1
10
164.911814
20
115.557013
11
165.094660
21
116.735330
0
LINE
8
Layer 1
10
165.094660
20
116.735330
11
165.180811
21
117.463606
0
LINE
8
Layer 1
10
165.180811
20
117.463606
11
165.424290
21
117.708560
0
LINE
8
Layer 1
10
165.424290
20
117.708560
11
181.276790
21
121.851360
0
LINE
8
Layer 1
10
181.276790
20
121.851360
11
188.423901
21
124.206554
0
LINE
8
Layer 1
10
188.423901
20
124.206554
11
194.076402
21
126.548184
0
LINE
8
Layer 1
10
194.076402
20
126.548184
11
196.273699
21
127.681932
0
LINE
8
Layer 1
10
196.273699
20
127.681932
11
198.015173
21
128.773914
0
LINE
8
Layer 1
10
198.015173
20
128.773914
11
199.273433
21
129.811337
0
LINE
8
Layer 1
10
199.273433
20
129.811337
11
200.021090
21
130.781410
0
LINE
8
Layer 1
10
200.021090
20
130.781410
11
200.307177
21
131.521400
0
LINE
8
Layer 1
10
200.307177
20
131.521400
11
200.174666
21
131.966709
0
LINE
8
Layer 1
10
200.174666
20
131.966709
11
199.553322
21
132.177753
0
LINE
8
Layer 1
10
199.553322
20
132.177753
11
198.372910
21
132.214950
0
LINE
8
Layer 1
10
198.372910
20
132.214950
11
196.269607
21
132.039065
0
LINE
8
Layer 1
10
196.269607
20
132.039065
11
192.739130
21
131.517910
0
LINE
8
Layer 1
10
192.739130
20
131.517910
11
187.884495
21
130.787780
0
LINE
8
Layer 1
10
187.884495
20
130.787780
11
184.794157
21
130.480561
0
LINE
8
Layer 1
10
184.794157
20
130.480561
11
183.046707
21
130.580227
0
LINE
8
Layer 1
10
183.046707
20
130.580227
11
182.544872
21
130.777633
0
LINE
8
Layer 1
10
182.544872
20
130.777633
11
182.220730
21
131.070750
0
LINE
8
Layer 1
10
182.220730
20
131.070750
11
182.061532
21
131.432419
0
LINE
8
Layer 1
10
182.061532
20
131.432419
11
182.160830
21
131.912460
0
LINE
8
Layer 1
10
182.160830
20
131.912460
11
182.454409
21
132.533265
0
LINE
8
Layer 1
10
182.454409
20
132.533265
11
182.835082
21
132.736085
0
LINE
8
Layer 1
10
182.835082
20
132.736085
11
183.395557
21
132.517218
0
LINE
8
Layer 1
10
183.395557
20
132.517218
11
184.228540
21
131.872960
0
LINE
8
Layer 1
10
184.228540
20
131.872960
11
184.837245
21
131.419228
0
LINE
8
Layer 1
10
184.837245
20
131.419228
11
185.142530
21
131.320590
0
LINE
8
Layer 1
10
185.142530
20
131.320590
11
187.270180
21
136.515530
0
LINE
8
Layer 1
10
187.270180
20
136.515530
11
189.367870
21
141.684180
0
LINE
8
Layer 1
10
189.367870
20
141.684180
11
190.986080
21
141.592080
0
LINE
8
Layer 1
10
190.986080
20
141.592080
11
192.724160
21
141.381660
0
LINE
8
Layer 1
10
192.724160
20
141.381660
11
192.856434
21
141.547084
0
LINE
8
Layer 1
10
192.856434
20
141.547084
11
192.928306
21
142.310503
0
LINE
8
Layer 1
10
192.928306
20
142.310503
11
192.963890
21
147.234190
0
LINE
8
Layer 1
10
192.963890
20
147.234190
11
193.003229
21
152.217060
0
LINE
8
Layer 1
10
193.003229
20
152.217060
11
193.084002
21
152.943489
0
LINE
8
Layer 1
10
193.084002
20
152.943489
11
193.233600
21
153.086720
0
LINE
8
Layer 1
10
193.233600
20
153.086720
11
195.256360
21
152.771080
0
LINE
8
Layer 1
10
195.256360
20
152.771080
11
197.009420
21
152.600110
0
LINE
8
Layer 1
10
197.009420
20
152.600110
11
194.672010
21
159.189140
0
LINE
8
Layer 1
10
194.672010
20
159.189140
11
192.319610
21
165.765020
0
LINE
8
Layer 1
10
192.319610
20
165.765020
11
194.866790
21
166.435760
0
LINE
8
Layer 1
10
194.866790
20
166.435760
11
197.548830
21
167.053890
0
LINE
8
Layer 1
10
197.548830
20
167.053890
11
193.128710
21
171.920040
0
LINE
8
Layer 1
10
193.128710
20
171.920040
11
188.618690
21
176.773040
0
LINE
8
Layer 1
10
188.618690
20
176.773040
11
190.791290
21
177.680510
0
LINE
8
Layer 1
10
190.791290
20
177.680510
11
192.963890
21
178.601140
0
LINE
8
Layer 1
10
192.963890
20
178.601140
11
187.629790
21
183.138490
0
LINE
8
Layer 1
10
187.629790
20
183.138490
11
183.222778
21
186.868664
0
LINE
8
Layer 1
10
183.222778
20
186.868664
11
182.591832
21
187.508785
0
LINE
8
Layer 1
10
182.591832
20
187.508785
11
182.580360
21
187.728460
0
LINE
8
Layer 1
10
182.580360
20
187.728460
11
184.543190
21
188.780600
0
LINE
8
Layer 1
10
184.543190
20
188.780600
11
186.221340
21
189.766980
0
LINE
8
Layer 1
10
186.221340
20
189.766980
11
180.662480
21
193.186440
0
LINE
8
Layer 1
10
180.662480
20
193.186440
11
176.350996
21
195.828293
0
LINE
8
Layer 1
10
176.350996
20
195.828293
11
175.208510
21
196.724250
0
LINE
8
Layer 1
10
175.208510
20
196.724250
11
176.272330
21
198.355070
0
LINE
8
Layer 1
10
176.272330
20
198.355070
11
177.141370
21
199.906980
0
LINE
8
Layer 1
10
177.141370
20
199.906980
11
174.759000
21
200.696080
0
LINE
8
Layer 1
10
174.759000
20
200.696080
11
170.863300
21
201.879740
0
LINE
8
Layer 1
10
170.863300
20
201.879740
11
165.843850
21
203.405350
0
LINE
8
Layer 1
10
165.843850
20
203.405350
11
162.412640
21
204.470640
0
LINE
8
Layer 1
10
162.412640
20
204.470640
11
163.866030
21
205.930480
0
LINE
8
Layer 1
10
163.866030
20
205.930480
11
165.379360
21
207.364030
0
LINE
8
Layer 1
10
165.379360
20
207.364030
11
164.000880
21
207.587610
0
LINE
8
Layer 1
10
164.000880
20
207.587610
11
150.006380
21
209.954920
0
LINE
8
Layer 1
10
150.006380
20
209.954920
11
150.635690
21
211.572600
0
LINE
8
Layer 1
10
150.635690
20
211.572600
11
151.414830
21
213.295480
0
LINE
8
Layer 1
10
151.414830
20
213.295480
11
149.922090
21
213.418779
0
LINE
8
Layer 1
10
149.922090
20
213.418779
11
143.833200
21
213.453300
0
LINE
8
Layer 1
10
143.833200
20
213.453300
11
137.133728
21
213.487824
0
LINE
8
Layer 1
10
137.133728
20
213.487824
11
136.296293
21
213.569818
0
LINE
8
Layer 1
10
136.296293
20
213.569818
11
136.176660
21
213.729490
0
LINE
8
Layer 1
10
136.176660
20
213.729490
11
136.341480
21
215.241940
0
LINE
8
Layer 1
10
136.341480
20
215.241940
11
136.431380
21
216.557120
0
LINE
8
Layer 1
10
136.431380
20
216.557120
11
129.524010
21
215.241940
0
LINE
8
Layer 1
10
129.524010
20
215.241940
11
122.496770
21
213.847850
0
LINE
8
Layer 1
10
122.496770
20
213.847850
11
122.251415
21
214.186510
0
LINE
8
Layer 1
10
122.251415
20
214.186510
11
121.927400
21
215.294550
0
LINE
8
Layer 1
10
121.927400
20
215.294550
11
121.492880
21
216.728090
0
LINE
8
Layer 1
10
121.492880
20
216.728090
11
114.900160
21
214.636950
0
LINE
8
Layer 1
10
114.900160
20
214.636950
11
114.900000
21
214.637000
 0 
ENDSEC
 0 
EOF