999
"DXF R12 Output" (www.mydxf.blogspot.com)
 0 
SECTION
 2 
HEADER
 9 
$ACADVER
 1 
AC1009
 9 
$EXTMIN
 10 
 0 
 20 
 0 
 9 
$EXTMAX
 10 
 8.5 
 20 
 11 
 0 
ENDSEC
 0 
SECTION
 2 
ENTITIES
0
LINE
8
Layer 1
10
129.821000
20
166.408000
11
129.420991
21
167.413601
0
LINE
8
Layer 1
10
129.420991
20
167.413601
11
129.020982
21
168.207915
0
LINE
8
Layer 1
10
129.020982
20
168.207915
11
128.820977
21
168.323763
0
LINE
8
Layer 1
10
128.820977
20
168.323763
11
128.620971
21
168.144297
0
LINE
8
Layer 1
10
128.620971
20
168.144297
11
128.220960
21
166.576101
0
LINE
8
Layer 1
10
128.220960
20
166.576101
11
127.486184
21
165.427299
0
LINE
8
Layer 1
10
127.486184
20
165.427299
11
126.655824
21
164.469716
0
LINE
8
Layer 1
10
126.655824
20
164.469716
11
125.729865
21
163.703346
0
LINE
8
Layer 1
10
125.729865
20
163.703346
11
124.708290
21
163.128181
0
LINE
8
Layer 1
10
124.708290
20
163.128181
11
122.929611
21
162.147915
0
LINE
8
Layer 1
10
122.929611
20
162.147915
11
121.279490
21
160.797021
0
LINE
8
Layer 1
10
121.279490
20
160.797021
11
119.819819
21
159.070360
0
LINE
8
Layer 1
10
119.819819
20
159.070360
11
118.629990
21
156.977091
0
LINE
8
Layer 1
10
118.629990
20
156.977091
11
118.120283
21
155.669043
0
LINE
8
Layer 1
10
118.120283
20
155.669043
11
117.740282
21
154.277261
0
LINE
8
Layer 1
10
117.740282
20
154.277261
11
117.505398
21
152.824001
0
LINE
8
Layer 1
10
117.505398
20
152.824001
11
117.425881
21
151.338221
0
LINE
8
Layer 1
10
117.425881
20
151.338221
11
117.505398
21
149.852451
0
LINE
8
Layer 1
10
117.505398
20
149.852451
11
117.740282
21
148.399191
0
LINE
8
Layer 1
10
117.740282
20
148.399191
11
118.120283
21
147.007410
0
LINE
8
Layer 1
10
118.120283
20
147.007410
11
118.629990
21
145.699371
0
LINE
8
Layer 1
10
118.629990
20
145.699371
11
118.999934
21
142.421681
0
LINE
8
Layer 1
10
118.999934
20
142.421681
11
119.252308
21
140.800231
0
LINE
8
Layer 1
10
119.252308
20
140.800231
11
119.551949
21
139.194681
0
LINE
8
Layer 1
10
119.551949
20
139.194681
11
119.901416
21
137.609091
0
LINE
8
Layer 1
10
119.901416
20
137.609091
11
120.303525
21
136.048251
0
LINE
8
Layer 1
10
120.303525
20
136.048251
11
120.761945
21
134.518011
0
LINE
8
Layer 1
10
120.761945
20
134.518011
11
121.280770
21
133.026501
0
LINE
8
Layer 1
10
121.280770
20
133.026501
11
121.865206
21
131.583291
0
LINE
8
Layer 1
10
121.865206
20
131.583291
11
122.520883
21
130.201751
0
LINE
8
Layer 1
10
122.520883
20
130.201751
11
123.254542
21
128.899361
0
LINE
8
Layer 1
10
123.254542
20
128.899361
11
124.072752
21
127.700371
0
LINE
8
Layer 1
10
124.072752
20
127.700371
11
124.904102
21
126.718816
0
LINE
8
Layer 1
10
124.904102
20
126.718816
11
125.470194
21
126.168930
0
LINE
8
Layer 1
10
125.470194
20
126.168930
11
125.981853
21
125.751614
0
LINE
8
Layer 1
10
125.981853
20
125.751614
11
126.515353
21
125.391679
0
LINE
8
Layer 1
10
126.515353
20
125.391679
11
127.068477
21
125.095934
0
LINE
8
Layer 1
10
127.068477
20
125.095934
11
128.220967
21
124.723446
0
LINE
8
Layer 1
10
128.220967
20
124.723446
11
128.447404
21
123.958028
0
LINE
8
Layer 1
10
128.447404
20
123.958028
11
128.697816
21
123.723486
0
LINE
8
Layer 1
10
128.697816
20
123.723486
11
128.993446
21
123.641006
0
LINE
8
Layer 1
10
128.993446
20
123.641006
11
129.289077
21
123.723486
0
LINE
8
Layer 1
10
129.289077
20
123.723486
11
129.539489
21
123.958028
0
LINE
8
Layer 1
10
129.539489
20
123.958028
11
129.766011
21
124.723446
0
LINE
8
Layer 1
10
129.766011
20
124.723446
11
130.918421
21
125.095934
0
LINE
8
Layer 1
10
130.918421
20
125.095934
11
131.471628
21
125.391679
0
LINE
8
Layer 1
10
131.471628
20
125.391679
11
132.005046
21
125.751614
0
LINE
8
Layer 1
10
132.005046
20
125.751614
11
132.516790
21
126.168930
0
LINE
8
Layer 1
10
132.516790
20
126.168930
11
133.082881
21
126.718816
0
LINE
8
Layer 1
10
133.082881
20
126.718816
11
133.914230
21
127.700371
0
LINE
8
Layer 1
10
133.914230
20
127.700371
11
134.732438
21
128.899361
0
LINE
8
Layer 1
10
134.732438
20
128.899361
11
135.466014
21
130.201751
0
LINE
8
Layer 1
10
135.466014
20
130.201751
11
136.121776
21
131.583291
0
LINE
8
Layer 1
10
136.121776
20
131.583291
11
136.706125
21
133.026501
0
LINE
8
Layer 1
10
136.706125
20
133.026501
11
137.225036
21
134.518011
0
LINE
8
Layer 1
10
137.225036
20
134.518011
11
137.683373
21
136.048251
0
LINE
8
Layer 1
10
137.683373
20
136.048251
11
138.085565
21
137.609091
0
LINE
8
Layer 1
10
138.085565
20
137.609091
11
138.434951
21
139.194681
0
LINE
8
Layer 1
10
138.434951
20
139.194681
11
138.734675
21
140.800231
0
LINE
8
Layer 1
10
138.734675
20
140.800231
11
138.986961
21
142.421681
0
LINE
8
Layer 1
10
138.986961
20
142.421681
11
139.356993
21
145.699371
0
LINE
8
Layer 1
10
139.356993
20
145.699371
11
139.866667
21
147.007414
0
LINE
8
Layer 1
10
139.866667
20
147.007414
11
140.246701
21
148.399191
0
LINE
8
Layer 1
10
140.246701
20
148.399191
11
140.481582
21
149.852451
0
LINE
8
Layer 1
10
140.481582
20
149.852451
11
140.561102
21
151.338221
0
LINE
8
Layer 1
10
140.561102
20
151.338221
11
140.481582
21
152.824001
0
LINE
8
Layer 1
10
140.481582
20
152.824001
11
140.246701
21
154.277261
0
LINE
8
Layer 1
10
140.246701
20
154.277261
11
139.866667
21
155.669041
0
LINE
8
Layer 1
10
139.866667
20
155.669041
11
139.356993
21
156.977091
0
LINE
8
Layer 1
10
139.356993
20
156.977091
11
138.167162
21
159.070360
0
LINE
8
Layer 1
10
138.167162
20
159.070360
11
136.707493
21
160.797021
0
LINE
8
Layer 1
10
136.707493
20
160.797021
11
135.057304
21
162.147918
0
LINE
8
Layer 1
10
135.057304
20
162.147918
11
133.278693
21
163.128181
0
LINE
8
Layer 1
10
133.278693
20
163.128181
11
132.257106
21
163.703345
0
LINE
8
Layer 1
10
132.257106
20
163.703345
11
131.331127
21
164.469712
0
LINE
8
Layer 1
10
131.331127
20
164.469712
11
130.500763
21
165.427294
0
LINE
8
Layer 1
10
130.500763
20
165.427294
11
129.766023
21
166.576101
0
LINE
8
Layer 1
10
118.652000
20
145.766000
11
139.381000
21
145.766000
0
LINE
8
Layer 1
10
139.381000
20
145.766000
11
118.652000
21
145.766000
 0 
ENDSEC
 0 
EOF