999
"DXF R12 Output" (www.mydxf.blogspot.com)
 0 
SECTION
 2 
HEADER
 9 
$ACADVER
 1 
AC1009
 9 
$EXTMIN
 10 
 0 
 20 
 0 
 9 
$EXTMAX
 10 
 8.5 
 20 
 11 
 0 
ENDSEC
 0 
SECTION
 2 
ENTITIES
0
LINE
8
Layer 1
10
0.000000
20
270.933000
11
270.933000
21
270.933000
0
LINE
8
Layer 1
10
270.933000
20
270.933000
11
270.933000
21
0.000008
0
LINE
8
Layer 1
10
270.933000
20
0.000008
11
0.000000
21
0.000008
0
LINE
8
Layer 1
10
0.000000
20
0.000008
11
0.000000
21
270.933000
0
LINE
8
Layer 1
10
0.000000
20
270.933000
11
0.000000
21
270.933000
0
LINE
8
Layer 1
10
141.982000
20
266.730000
11
143.555078
21
265.741516
0
LINE
8
Layer 1
10
143.555078
20
265.741516
11
145.661125
21
263.984375
0
LINE
8
Layer 1
10
145.661125
20
263.984375
11
149.284000
21
260.617000
0
LINE
8
Layer 1
10
149.284000
20
260.617000
11
151.741334
21
258.088912
0
LINE
8
Layer 1
10
151.741334
20
258.088912
11
153.858109
21
255.520922
0
LINE
8
Layer 1
10
153.858109
20
255.520922
11
155.647861
21
252.879689
0
LINE
8
Layer 1
10
155.647861
20
252.879689
11
157.124125
21
250.131875
0
LINE
8
Layer 1
10
157.124125
20
250.131875
11
158.300436
21
247.244139
0
LINE
8
Layer 1
10
158.300436
20
247.244139
11
159.190328
21
244.183141
0
LINE
8
Layer 1
10
159.190328
20
244.183141
11
159.807338
21
240.915541
0
LINE
8
Layer 1
10
159.807338
20
240.915541
11
160.165000
21
237.408000
0
LINE
8
Layer 1
10
160.165000
20
237.408000
11
160.248250
21
234.204000
0
LINE
8
Layer 1
10
160.248250
20
234.204000
11
160.267000
21
230.997000
0
LINE
8
Layer 1
10
160.267000
20
230.997000
11
161.006344
21
232.143906
0
LINE
8
Layer 1
10
161.006344
20
232.143906
11
161.846000
21
233.133500
0
LINE
8
Layer 1
10
161.846000
20
233.133500
11
162.813156
21
233.999344
0
LINE
8
Layer 1
10
162.813156
20
233.999344
11
163.935000
21
234.775000
0
LINE
8
Layer 1
10
163.935000
20
234.775000
11
165.978359
21
235.828203
0
LINE
8
Layer 1
10
165.978359
20
235.828203
11
168.249625
21
236.586375
0
LINE
8
Layer 1
10
168.249625
20
236.586375
11
170.601328
21
236.910109
0
LINE
8
Layer 1
10
170.601328
20
236.910109
11
171.761260
21
236.865498
0
LINE
8
Layer 1
10
171.761260
20
236.865498
11
172.886000
21
236.660000
0
LINE
8
Layer 1
10
172.886000
20
236.660000
11
174.154812
21
236.176359
0
LINE
8
Layer 1
10
174.154812
20
236.176359
11
175.257500
21
235.464625
0
LINE
8
Layer 1
10
175.257500
20
235.464625
11
176.206437
21
234.553578
0
LINE
8
Layer 1
10
176.206437
20
234.553578
11
177.014000
21
233.472000
0
LINE
8
Layer 1
10
177.014000
20
233.472000
11
177.897577
21
231.762081
0
LINE
8
Layer 1
10
177.897577
20
231.762081
11
178.485883
21
229.908369
0
LINE
8
Layer 1
10
178.485883
20
229.908369
11
178.815591
21
227.939617
0
LINE
8
Layer 1
10
178.815591
20
227.939617
11
178.923375
21
225.884578
0
LINE
8
Layer 1
10
178.923375
20
225.884578
11
178.845909
21
223.772006
0
LINE
8
Layer 1
10
178.845909
20
223.772006
11
178.619867
21
221.630654
0
LINE
8
Layer 1
10
178.619867
20
221.630654
11
177.868750
21
217.376625
0
LINE
8
Layer 1
10
177.868750
20
217.376625
11
176.197250
21
209.788359
0
LINE
8
Layer 1
10
176.197250
20
209.788359
11
175.863648
21
206.914178
0
LINE
8
Layer 1
10
175.863648
20
206.914178
11
175.950743
21
205.807712
0
LINE
8
Layer 1
10
175.950743
20
205.807712
11
176.256000
21
204.960000
0
LINE
8
Layer 1
10
176.256000
20
204.960000
11
176.682594
21
204.894578
0
LINE
8
Layer 1
10
176.682594
20
204.894578
11
177.080500
21
204.984875
0
LINE
8
Layer 1
10
177.080500
20
204.984875
11
177.836000
21
205.408000
0
LINE
8
Layer 1
10
177.836000
20
205.408000
11
179.446500
21
206.626625
0
LINE
8
Layer 1
10
179.446500
20
206.626625
11
180.991000
21
207.933000
0
LINE
8
Layer 1
10
180.991000
20
207.933000
11
183.739734
21
209.939469
0
LINE
8
Layer 1
10
183.739734
20
209.939469
11
186.749375
21
211.718500
0
LINE
8
Layer 1
10
186.749375
20
211.718500
11
189.947828
21
213.067781
0
LINE
8
Layer 1
10
189.947828
20
213.067781
11
191.595330
21
213.518043
0
LINE
8
Layer 1
10
191.595330
20
213.518043
11
193.263000
21
213.785000
0
LINE
8
Layer 1
10
193.263000
20
213.785000
11
194.843266
21
213.808172
0
LINE
8
Layer 1
10
194.843266
20
213.808172
11
196.357625
21
213.545875
0
LINE
8
Layer 1
10
196.357625
20
213.545875
11
197.783672
21
212.979641
0
LINE
8
Layer 1
10
197.783672
20
212.979641
11
199.099000
21
212.091000
0
LINE
8
Layer 1
10
199.099000
20
212.091000
11
199.941680
21
211.253887
0
LINE
8
Layer 1
10
199.941680
20
211.253887
11
200.636000
21
210.311281
0
LINE
8
Layer 1
10
200.636000
20
210.311281
11
201.638250
21
208.189000
0
LINE
8
Layer 1
10
201.638250
20
208.189000
11
202.223125
21
205.882969
0
LINE
8
Layer 1
10
202.223125
20
205.882969
11
202.508000
21
203.552000
0
LINE
8
Layer 1
10
202.508000
20
203.552000
11
202.540877
21
199.464867
0
LINE
8
Layer 1
10
202.540877
20
199.464867
11
202.048016
21
195.489062
0
LINE
8
Layer 1
10
202.048016
20
195.489062
11
201.082678
21
191.632977
0
LINE
8
Layer 1
10
201.082678
20
191.632977
11
199.698125
21
187.905000
0
LINE
8
Layer 1
10
199.698125
20
187.905000
11
197.947619
21
184.313523
0
LINE
8
Layer 1
10
197.947619
20
184.313523
11
195.884422
21
180.866938
0
LINE
8
Layer 1
10
195.884422
20
180.866938
11
193.561795
21
177.573633
0
LINE
8
Layer 1
10
193.561795
20
177.573633
11
191.033000
21
174.442000
0
LINE
8
Layer 1
10
191.033000
20
174.442000
11
195.114250
21
176.778500
0
LINE
8
Layer 1
10
195.114250
20
176.778500
11
199.359000
21
178.800000
0
LINE
8
Layer 1
10
199.359000
20
178.800000
11
203.042072
21
180.155396
0
LINE
8
Layer 1
10
203.042072
20
180.155396
11
206.839953
21
181.199297
0
LINE
8
Layer 1
10
206.839953
20
181.199297
11
210.716139
21
181.909518
0
LINE
8
Layer 1
10
210.716139
20
181.909518
11
214.634125
21
182.263875
0
LINE
8
Layer 1
10
214.634125
20
182.263875
11
218.557408
21
182.240186
0
LINE
8
Layer 1
10
218.557408
20
182.240186
11
222.449484
21
181.816266
0
LINE
8
Layer 1
10
222.449484
20
181.816266
11
226.273850
21
180.969932
0
LINE
8
Layer 1
10
226.273850
20
180.969932
11
229.994000
21
179.679000
0
LINE
8
Layer 1
10
229.994000
20
179.679000
11
230.572031
21
176.216406
0
LINE
8
Layer 1
10
230.572031
20
176.216406
11
230.767750
21
172.394750
0
LINE
8
Layer 1
10
230.767750
20
172.394750
11
230.663094
21
168.552469
0
LINE
8
Layer 1
10
230.663094
20
168.552469
11
230.340000
21
165.028000
0
LINE
8
Layer 1
10
230.340000
20
165.028000
11
229.649518
21
161.488586
0
LINE
8
Layer 1
10
229.649518
20
161.488586
11
228.517953
21
158.135500
0
LINE
8
Layer 1
10
228.517953
20
158.135500
11
226.997256
21
154.964102
0
LINE
8
Layer 1
10
226.997256
20
154.964102
11
225.139375
21
151.969750
0
LINE
8
Layer 1
10
225.139375
20
151.969750
11
222.996260
21
149.147805
0
LINE
8
Layer 1
10
222.996260
20
149.147805
11
220.619859
21
146.493625
0
LINE
8
Layer 1
10
220.619859
20
146.493625
11
218.062123
21
144.002570
0
LINE
8
Layer 1
10
218.062123
20
144.002570
11
215.375000
21
141.670000
0
LINE
8
Layer 1
10
215.375000
20
141.670000
11
211.061000
21
138.395000
0
LINE
8
Layer 1
10
211.061000
20
138.395000
11
212.759000
21
138.676000
0
LINE
8
Layer 1
10
212.759000
20
138.676000
11
214.470000
21
138.858000
0
LINE
8
Layer 1
10
214.470000
20
138.858000
11
216.189000
21
138.941000
0
LINE
8
Layer 1
10
216.189000
20
138.941000
11
217.910000
21
138.924000
0
LINE
8
Layer 1
10
217.910000
20
138.924000
11
219.627000
21
138.808000
0
LINE
8
Layer 1
10
219.627000
20
138.808000
11
221.335000
21
138.594000
0
LINE
8
Layer 1
10
221.335000
20
138.594000
11
223.027000
21
138.280000
0
LINE
8
Layer 1
10
223.027000
20
138.280000
11
224.698000
21
137.869000
0
LINE
8
Layer 1
10
224.698000
20
137.869000
11
227.150484
21
137.054141
0
LINE
8
Layer 1
10
227.150484
20
137.054141
11
229.507625
21
135.896625
0
LINE
8
Layer 1
10
229.507625
20
135.896625
11
230.589592
21
135.168307
0
LINE
8
Layer 1
10
230.589592
20
135.168307
11
231.574703
21
134.329047
0
LINE
8
Layer 1
10
231.574703
20
134.329047
11
232.438619
21
133.370420
0
LINE
8
Layer 1
10
232.438619
20
133.370420
11
233.157000
21
132.284000
0
LINE
8
Layer 1
10
233.157000
20
132.284000
11
233.829750
21
130.654203
0
LINE
8
Layer 1
10
233.829750
20
130.654203
11
234.111750
21
128.972375
0
LINE
8
Layer 1
10
234.111750
20
128.972375
11
234.046875
21
127.259609
0
LINE
8
Layer 1
10
234.046875
20
127.259609
11
233.679000
21
125.537000
0
LINE
8
Layer 1
10
233.679000
20
125.537000
11
233.100425
21
123.858109
0
LINE
8
Layer 1
10
233.100425
20
123.858109
11
232.360385
21
122.189246
0
LINE
8
Layer 1
10
232.360385
20
122.189246
11
230.450266
21
118.910469
0
LINE
8
Layer 1
10
230.450266
20
118.910469
11
228.057357
21
115.758395
0
LINE
8
Layer 1
10
228.057357
20
115.758395
11
225.290375
21
112.790750
0
LINE
8
Layer 1
10
225.290375
20
112.790750
11
222.258033
21
110.065262
0
LINE
8
Layer 1
10
222.258033
20
110.065262
11
219.069047
21
107.639656
0
LINE
8
Layer 1
10
219.069047
20
107.639656
11
215.832131
21
105.571660
0
LINE
8
Layer 1
10
215.832131
20
105.571660
11
212.656000
21
103.919000
0
LINE
8
Layer 1
10
212.656000
20
103.919000
11
206.152000
21
101.240000
0
LINE
8
Layer 1
10
206.152000
20
101.240000
11
203.402625
21
100.229388
0
LINE
8
Layer 1
10
203.402625
20
100.229388
11
200.741000
21
99.029700
0
LINE
8
Layer 1
10
200.741000
20
99.029700
11
200.618000
21
98.960100
0
LINE
8
Layer 1
10
200.618000
20
98.960100
11
204.880125
21
97.787375
0
LINE
8
Layer 1
10
204.880125
20
97.787375
11
206.963703
21
96.991828
0
LINE
8
Layer 1
10
206.963703
20
96.991828
11
208.861000
21
95.945500
0
LINE
8
Layer 1
10
208.861000
20
95.945500
11
209.881766
21
95.126233
0
LINE
8
Layer 1
10
209.881766
20
95.126233
11
210.742875
21
94.147863
0
LINE
8
Layer 1
10
210.742875
20
94.147863
11
211.389297
21
93.024536
0
LINE
8
Layer 1
10
211.389297
20
93.024536
11
211.766000
21
91.770400
0
LINE
8
Layer 1
10
211.766000
20
91.770400
11
211.853758
21
90.628438
0
LINE
8
Layer 1
10
211.853758
20
90.628438
11
211.749937
21
89.484717
0
LINE
8
Layer 1
10
211.749937
20
89.484717
11
211.082500
21
87.237837
0
LINE
8
Layer 1
10
211.082500
20
87.237837
11
209.993562
21
85.121439
0
LINE
8
Layer 1
10
209.993562
20
85.121439
11
208.713000
21
83.227200
0
LINE
8
Layer 1
10
208.713000
20
83.227200
11
207.358276
21
81.557655
0
LINE
8
Layer 1
10
207.358276
20
81.557655
11
205.883752
21
80.028017
0
LINE
8
Layer 1
10
205.883752
20
80.028017
11
204.299966
21
78.631159
0
LINE
8
Layer 1
10
204.299966
20
78.631159
11
202.617453
21
77.359955
0
LINE
8
Layer 1
10
202.617453
20
77.359955
11
198.998396
21
75.165993
0
LINE
8
Layer 1
10
198.998396
20
75.165993
11
195.110875
21
73.389112
0
LINE
8
Layer 1
10
195.110875
20
73.389112
11
191.039182
21
71.972293
0
LINE
8
Layer 1
10
191.039182
20
71.972293
11
186.867609
21
70.858514
0
LINE
8
Layer 1
10
186.867609
20
70.858514
11
182.680451
21
69.990756
0
LINE
8
Layer 1
10
182.680451
20
69.990756
11
178.562000
21
69.312000
0
LINE
8
Layer 1
10
178.562000
20
69.312000
11
179.111000
21
69.054100
0
LINE
8
Layer 1
10
179.111000
20
69.054100
11
180.354141
21
68.446598
0
LINE
8
Layer 1
10
180.354141
20
68.446598
11
181.516375
21
67.733788
0
LINE
8
Layer 1
10
181.516375
20
67.733788
11
182.484172
21
66.814408
0
LINE
8
Layer 1
10
182.484172
20
66.814408
11
183.144000
21
65.587200
0
LINE
8
Layer 1
10
183.144000
20
65.587200
11
183.324918
21
64.781272
0
LINE
8
Layer 1
10
183.324918
20
64.781272
11
183.352344
21
63.968108
0
LINE
8
Layer 1
10
183.352344
20
63.968108
11
183.027250
21
62.358738
0
LINE
8
Layer 1
10
183.027250
20
62.358738
11
182.329781
21
60.836423
0
LINE
8
Layer 1
10
182.329781
20
60.836423
11
181.421000
21
59.478500
0
LINE
8
Layer 1
10
181.421000
20
59.478500
11
179.460260
21
57.232542
0
LINE
8
Layer 1
10
179.460260
20
57.232542
11
177.235578
21
55.194884
0
LINE
8
Layer 1
10
177.235578
20
55.194884
11
174.799514
21
53.345116
0
LINE
8
Layer 1
10
174.799514
20
53.345116
11
172.204625
21
51.662825
0
LINE
8
Layer 1
10
172.204625
20
51.662825
11
169.503471
21
50.127600
0
LINE
8
Layer 1
10
169.503471
20
50.127600
11
166.748609
21
48.719028
0
LINE
8
Layer 1
10
166.748609
20
48.719028
11
161.288000
21
46.200200
0
LINE
8
Layer 1
10
161.288000
20
46.200200
11
155.355125
21
43.493538
0
LINE
8
Layer 1
10
155.355125
20
43.493538
11
152.478266
21
41.951483
0
LINE
8
Layer 1
10
152.478266
20
41.951483
11
149.756000
21
40.172700
0
LINE
8
Layer 1
10
149.756000
20
40.172700
11
147.592297
21
38.340034
0
LINE
8
Layer 1
10
147.592297
20
38.340034
11
145.667375
21
36.222875
0
LINE
8
Layer 1
10
145.667375
20
36.222875
11
144.010766
21
33.886453
0
LINE
8
Layer 1
10
144.010766
20
33.886453
11
142.652000
21
31.396000
0
LINE
8
Layer 1
10
142.652000
20
31.396000
11
141.574375
21
28.849688
0
LINE
8
Layer 1
10
141.574375
20
28.849688
11
141.193859
21
27.500392
0
LINE
8
Layer 1
10
141.193859
20
27.500392
11
141.036000
21
26.155400
0
LINE
8
Layer 1
10
141.036000
20
26.155400
11
141.223480
21
24.853841
0
LINE
8
Layer 1
10
141.223480
20
24.853841
11
141.748156
21
23.093281
0
LINE
8
Layer 1
10
141.748156
20
23.093281
11
143.429500
21
18.782075
0
LINE
8
Layer 1
10
143.429500
20
18.782075
11
145.320844
21
14.395606
0
LINE
8
Layer 1
10
145.320844
20
14.395606
11
146.663000
21
11.107700
0
LINE
8
Layer 1
10
146.663000
20
11.107700
11
146.961375
21
9.916241
0
LINE
8
Layer 1
10
146.961375
20
9.916241
11
146.950859
21
9.314131
0
LINE
8
Layer 1
10
146.950859
20
9.314131
11
146.758000
21
8.733100
0
LINE
8
Layer 1
10
146.758000
20
8.733100
11
145.942469
21
7.637596
0
LINE
8
Layer 1
10
145.942469
20
7.637596
11
144.750250
21
6.523269
0
LINE
8
Layer 1
10
144.750250
20
6.523269
11
143.418156
21
5.592644
0
LINE
8
Layer 1
10
143.418156
20
5.592644
11
142.183000
21
5.048250
0
LINE
8
Layer 1
10
142.183000
20
5.048250
11
141.217859
21
4.944154
0
LINE
8
Layer 1
10
141.217859
20
4.944154
11
140.322375
21
5.104474
0
LINE
8
Layer 1
10
140.322375
20
5.104474
11
138.635000
21
5.934600
0
LINE
8
Layer 1
10
138.635000
20
5.934600
11
137.658859
21
8.233995
0
LINE
8
Layer 1
10
137.658859
20
8.233995
11
136.697625
21
11.020106
0
LINE
8
Layer 1
10
136.697625
20
11.020106
11
135.121000
21
16.304400
0
LINE
8
Layer 1
10
135.121000
20
16.304400
11
133.409000
21
23.143100
0
LINE
8
Layer 1
10
133.409000
20
23.143100
11
132.881500
21
26.387837
0
LINE
8
Layer 1
10
132.881500
20
26.387837
11
132.551469
21
28.039789
0
LINE
8
Layer 1
10
132.551469
20
28.039789
11
132.072000
21
29.491500
0
LINE
8
Layer 1
10
132.072000
20
29.491500
11
131.497047
21
30.523945
0
LINE
8
Layer 1
10
131.497047
20
30.523945
11
130.762625
21
31.529438
0
LINE
8
Layer 1
10
130.762625
20
31.529438
11
129.169000
21
33.388800
0
LINE
8
Layer 1
10
129.169000
20
33.388800
11
127.154875
21
35.446235
0
LINE
8
Layer 1
10
127.154875
20
35.446235
11
124.957750
21
37.242520
0
LINE
8
Layer 1
10
124.957750
20
37.242520
11
122.604625
21
38.805568
0
LINE
8
Layer 1
10
122.604625
20
38.805568
11
120.122500
21
40.163288
0
LINE
8
Layer 1
10
120.122500
20
40.163288
11
117.538375
21
41.343590
0
LINE
8
Layer 1
10
117.538375
20
41.343590
11
114.879250
21
42.374386
0
LINE
8
Layer 1
10
114.879250
20
42.374386
11
109.444000
21
44.099100
0
LINE
8
Layer 1
10
109.444000
20
44.099100
11
104.779625
21
45.398825
0
LINE
8
Layer 1
10
104.779625
20
45.398825
11
100.173000
21
46.882300
0
LINE
8
Layer 1
10
100.173000
20
46.882300
11
97.066775
21
48.189977
0
LINE
8
Layer 1
10
97.066775
20
48.189977
11
93.837475
21
49.972037
0
LINE
8
Layer 1
10
93.837475
20
49.972037
11
92.338941
21
51.042711
0
LINE
8
Layer 1
10
92.338941
20
51.042711
11
91.004362
21
52.234080
0
LINE
8
Layer 1
10
91.004362
20
52.234080
11
89.898646
21
53.546843
0
LINE
8
Layer 1
10
89.898646
20
53.546843
11
89.086700
21
54.981700
0
LINE
8
Layer 1
10
89.086700
20
54.981700
11
88.774814
21
55.961255
0
LINE
8
Layer 1
10
88.774814
20
55.961255
11
88.678938
21
56.941887
0
LINE
8
Layer 1
10
88.678938
20
56.941887
11
88.796717
21
57.920777
0
LINE
8
Layer 1
10
88.796717
20
57.920777
11
89.125800
21
58.895100
0
LINE
8
Layer 1
10
89.125800
20
58.895100
11
89.712789
21
59.943285
0
LINE
8
Layer 1
10
89.712789
20
59.943285
11
90.456616
21
60.863447
0
LINE
8
Layer 1
10
90.456616
20
60.863447
11
91.328828
21
61.668798
0
LINE
8
Layer 1
10
91.328828
20
61.668798
11
92.300975
21
62.372550
0
LINE
8
Layer 1
10
92.300975
20
62.372550
11
94.431272
21
63.528103
0
LINE
8
Layer 1
10
94.431272
20
63.528103
11
96.619900
21
64.435800
0
LINE
8
Layer 1
10
96.619900
20
64.435800
11
91.484545
21
65.627148
0
LINE
8
Layer 1
10
91.484545
20
65.627148
11
86.270788
21
66.983637
0
LINE
8
Layer 1
10
86.270788
20
66.983637
11
81.125936
21
68.554158
0
LINE
8
Layer 1
10
81.125936
20
68.554158
11
76.197300
21
70.387600
0
LINE
8
Layer 1
10
76.197300
20
70.387600
11
72.498922
21
72.059616
0
LINE
8
Layer 1
10
72.498922
20
72.059616
11
70.639417
21
73.060189
0
LINE
8
Layer 1
10
70.639417
20
73.060189
11
68.849650
21
74.190275
0
LINE
8
Layer 1
10
68.849650
20
74.190275
11
67.187083
21
75.464727
0
LINE
8
Layer 1
10
67.187083
20
75.464727
11
65.709178
21
76.898397
0
LINE
8
Layer 1
10
65.709178
20
76.898397
11
64.473396
21
78.506137
0
LINE
8
Layer 1
10
64.473396
20
78.506137
11
63.537200
21
80.302800
0
LINE
8
Layer 1
10
63.537200
20
80.302800
11
63.148083
21
81.560652
0
LINE
8
Layer 1
10
63.148083
20
81.560652
11
62.989488
21
82.861187
0
LINE
8
Layer 1
10
62.989488
20
82.861187
11
63.091123
21
84.161930
0
LINE
8
Layer 1
10
63.091123
20
84.161930
11
63.482700
21
85.420400
0
LINE
8
Layer 1
10
63.482700
20
85.420400
11
64.147837
21
86.549232
0
LINE
8
Layer 1
10
64.147837
20
86.549232
11
65.013692
21
87.489423
0
LINE
8
Layer 1
10
65.013692
20
87.489423
11
66.038217
21
88.269844
0
LINE
8
Layer 1
10
66.038217
20
88.269844
11
67.179362
21
88.919363
0
LINE
8
Layer 1
10
67.179362
20
88.919363
11
69.643327
21
89.941170
0
LINE
8
Layer 1
10
69.643327
20
89.941170
11
72.069200
21
90.785800
0
LINE
8
Layer 1
10
72.069200
20
90.785800
11
67.556245
21
92.119786
0
LINE
8
Layer 1
10
67.556245
20
92.119786
11
63.423138
21
93.471463
0
LINE
8
Layer 1
10
63.423138
20
93.471463
11
59.376711
21
95.089783
0
LINE
8
Layer 1
10
59.376711
20
95.089783
11
55.123800
21
97.223700
0
LINE
8
Layer 1
10
55.123800
20
97.223700
11
52.271730
21
98.925033
0
LINE
8
Layer 1
10
52.271730
20
98.925033
11
49.474738
21
100.849186
0
LINE
8
Layer 1
10
49.474738
20
100.849186
11
46.795889
21
102.991099
0
LINE
8
Layer 1
10
46.795889
20
102.991099
11
44.298250
21
105.345713
0
LINE
8
Layer 1
10
44.298250
20
105.345713
11
42.044886
21
107.907969
0
LINE
8
Layer 1
10
42.044886
20
107.907969
11
40.098863
21
110.672808
0
LINE
8
Layer 1
10
40.098863
20
110.672808
11
38.523245
21
113.635171
0
LINE
8
Layer 1
10
38.523245
20
113.635171
11
37.381100
21
116.790000
0
LINE
8
Layer 1
10
37.381100
20
116.790000
11
36.970391
21
118.897188
0
LINE
8
Layer 1
10
36.970391
20
118.897188
11
36.928850
21
121.015250
0
LINE
8
Layer 1
10
36.928850
20
121.015250
11
37.303334
21
123.089438
0
LINE
8
Layer 1
10
37.303334
20
123.089438
11
38.140700
21
125.065000
0
LINE
8
Layer 1
10
38.140700
20
125.065000
11
38.889958
21
126.190165
0
LINE
8
Layer 1
10
38.889958
20
126.190165
11
39.778473
21
127.194914
0
LINE
8
Layer 1
10
39.778473
20
127.194914
11
40.791113
21
128.084315
0
LINE
8
Layer 1
10
40.791113
20
128.084315
11
41.912750
21
128.863438
0
LINE
8
Layer 1
10
41.912750
20
128.863438
11
44.422496
21
130.111117
0
LINE
8
Layer 1
10
44.422496
20
130.111117
11
47.186675
21
130.978500
0
LINE
8
Layer 1
10
47.186675
20
130.978500
11
50.084251
21
131.506133
0
LINE
8
Layer 1
10
50.084251
20
131.506133
11
52.994187
21
131.734562
0
LINE
8
Layer 1
10
52.994187
20
131.734562
11
55.795449
21
131.704336
0
LINE
8
Layer 1
10
55.795449
20
131.704336
11
58.367000
21
131.456000
0
LINE
8
Layer 1
10
58.367000
20
131.456000
11
63.660213
21
130.350875
0
LINE
8
Layer 1
10
63.660213
20
130.350875
11
66.564242
21
129.859766
0
LINE
8
Layer 1
10
66.564242
20
129.859766
11
67.749473
21
129.782275
0
LINE
8
Layer 1
10
67.749473
20
129.782275
11
68.630700
21
129.875000
0
LINE
8
Layer 1
10
68.630700
20
129.875000
11
68.712700
21
130.035000
0
LINE
8
Layer 1
10
68.712700
20
130.035000
11
68.504711
21
130.616750
0
LINE
8
Layer 1
10
68.504711
20
130.616750
11
68.150087
21
131.163250
0
LINE
8
Layer 1
10
68.150087
20
131.163250
11
67.278700
21
132.113000
0
LINE
8
Layer 1
10
67.278700
20
132.113000
11
65.224613
21
133.910875
0
LINE
8
Layer 1
10
65.224613
20
133.910875
11
63.077600
21
135.606000
0
LINE
8
Layer 1
10
63.077600
20
135.606000
11
59.809975
21
138.349875
0
LINE
8
Layer 1
10
59.809975
20
138.349875
11
56.694300
21
141.264000
0
LINE
8
Layer 1
10
56.694300
20
141.264000
11
52.625237
21
145.648875
0
LINE
8
Layer 1
10
52.625237
20
145.648875
11
50.739352
21
147.982641
0
LINE
8
Layer 1
10
50.739352
20
147.982641
11
49.010600
21
150.408000
0
LINE
8
Layer 1
10
49.010600
20
150.408000
11
46.690905
21
154.191547
0
LINE
8
Layer 1
10
46.690905
20
154.191547
11
45.646725
21
156.219205
0
LINE
8
Layer 1
10
45.646725
20
156.219205
11
44.753587
21
158.315875
0
LINE
8
Layer 1
10
44.753587
20
158.315875
11
44.066939
21
160.465373
0
LINE
8
Layer 1
10
44.066939
20
160.465373
11
43.642227
21
162.651516
0
LINE
8
Layer 1
10
43.642227
20
162.651516
11
43.534898
21
164.858119
0
LINE
8
Layer 1
10
43.534898
20
164.858119
11
43.800400
21
167.069000
0
LINE
8
Layer 1
10
43.800400
20
167.069000
11
44.428463
21
168.951766
0
LINE
8
Layer 1
10
44.428463
20
168.951766
11
45.432800
21
170.635875
0
LINE
8
Layer 1
10
45.432800
20
170.635875
11
46.754537
21
172.092547
0
LINE
8
Layer 1
10
46.754537
20
172.092547
11
48.334800
21
173.293000
0
LINE
8
Layer 1
10
48.334800
20
173.293000
11
49.738467
21
174.063629
0
LINE
8
Layer 1
10
49.738467
20
174.063629
11
51.215489
21
174.667498
0
LINE
8
Layer 1
10
51.215489
20
174.667498
11
52.755734
21
175.116021
0
LINE
8
Layer 1
10
52.755734
20
175.116021
11
54.349069
21
175.420609
0
LINE
8
Layer 1
10
54.349069
20
175.420609
11
57.654483
21
175.643635
0
LINE
8
Layer 1
10
57.654483
20
175.643635
11
61.050675
21
175.427875
0
LINE
8
Layer 1
10
61.050675
20
175.427875
11
64.456589
21
174.864631
0
LINE
8
Layer 1
10
64.456589
20
174.864631
11
67.791169
21
174.045203
0
LINE
8
Layer 1
10
67.791169
20
174.045203
11
70.973358
21
173.060893
0
LINE
8
Layer 1
10
70.973358
20
173.060893
11
73.922100
21
172.003000
0
LINE
8
Layer 1
10
73.922100
20
172.003000
11
77.341112
21
170.525500
0
LINE
8
Layer 1
10
77.341112
20
170.525500
11
79.086792
21
169.830906
0
LINE
8
Layer 1
10
79.086792
20
169.830906
11
80.834300
21
169.345000
0
LINE
8
Layer 1
10
80.834300
20
169.345000
11
81.400663
21
169.330500
0
LINE
8
Layer 1
10
81.400663
20
169.330500
11
81.905900
21
169.583000
0
LINE
8
Layer 1
10
81.905900
20
169.583000
11
81.927322
21
170.659598
0
LINE
8
Layer 1
10
81.927322
20
170.659598
11
81.468123
21
172.102781
0
LINE
8
Layer 1
10
81.468123
20
172.102781
11
80.653910
21
173.789762
0
LINE
8
Layer 1
10
80.653910
20
173.789762
11
79.610287
21
175.597750
0
LINE
8
Layer 1
10
79.610287
20
175.597750
11
77.337233
21
179.085594
0
LINE
8
Layer 1
10
77.337233
20
179.085594
11
75.653800
21
181.584000
0
LINE
8
Layer 1
10
75.653800
20
181.584000
11
74.194900
21
184.049500
0
LINE
8
Layer 1
10
74.194900
20
184.049500
11
72.894700
21
186.602000
0
LINE
8
Layer 1
10
72.894700
20
186.602000
11
71.844550
21
189.119516
0
LINE
8
Layer 1
10
71.844550
20
189.119516
11
70.980550
21
191.712125
0
LINE
8
Layer 1
10
70.980550
20
191.712125
11
70.290325
21
194.358172
0
LINE
8
Layer 1
10
70.290325
20
194.358172
11
69.761500
21
197.036000
0
LINE
8
Layer 1
10
69.761500
20
197.036000
11
69.336970
21
200.561547
0
LINE
8
Layer 1
10
69.336970
20
200.561547
11
69.287304
21
202.331744
0
LINE
8
Layer 1
10
69.287304
20
202.331744
11
69.382438
21
204.086625
0
LINE
8
Layer 1
10
69.382438
20
204.086625
11
69.649673
21
205.810990
0
LINE
8
Layer 1
10
69.649673
20
205.810990
11
70.116311
21
207.489641
0
LINE
8
Layer 1
10
70.116311
20
207.489641
11
70.809653
21
209.107377
0
LINE
8
Layer 1
10
70.809653
20
209.107377
11
71.757000
21
210.649000
0
LINE
8
Layer 1
10
71.757000
20
210.649000
11
72.691675
21
211.755173
0
LINE
8
Layer 1
10
72.691675
20
211.755173
11
73.727772
21
212.649947
0
LINE
8
Layer 1
10
73.727772
20
212.649947
11
74.852701
21
213.347767
0
LINE
8
Layer 1
10
74.852701
20
213.347767
11
76.053873
21
213.863078
0
LINE
8
Layer 1
10
76.053873
20
213.863078
11
77.318702
21
214.210324
0
LINE
8
Layer 1
10
77.318702
20
214.210324
11
78.634598
21
214.403951
0
LINE
8
Layer 1
10
78.634598
20
214.403951
11
81.369237
21
214.388125
0
LINE
8
Layer 1
10
81.369237
20
214.388125
11
84.157085
21
213.931158
0
LINE
8
Layer 1
10
84.157085
20
213.931158
11
86.897433
21
213.148609
0
LINE
8
Layer 1
10
86.897433
20
213.148609
11
89.489574
21
212.156037
0
LINE
8
Layer 1
10
89.489574
20
212.156037
11
91.832800
21
211.069000
0
LINE
8
Layer 1
10
91.832800
20
211.069000
11
96.023462
21
208.651000
0
LINE
8
Layer 1
10
96.023462
20
208.651000
11
98.397245
21
207.364937
0
LINE
8
Layer 1
10
98.397245
20
207.364937
11
99.279503
21
206.977773
0
LINE
8
Layer 1
10
99.279503
20
206.977773
11
99.816100
21
206.866000
0
LINE
8
Layer 1
10
99.816100
20
206.866000
11
99.915088
21
207.536096
0
LINE
8
Layer 1
10
99.915088
20
207.536096
11
99.797141
21
208.466266
0
LINE
8
Layer 1
10
99.797141
20
208.466266
11
99.129525
21
210.768625
0
LINE
8
Layer 1
10
99.129525
20
210.768625
11
97.601000
21
214.774000
0
LINE
8
Layer 1
10
97.601000
20
214.774000
11
96.501900
21
218.457000
0
LINE
8
Layer 1
10
96.501900
20
218.457000
11
95.749875
21
221.943000
0
LINE
8
Layer 1
10
95.749875
20
221.943000
11
95.361000
21
225.486000
0
LINE
8
Layer 1
10
95.361000
20
225.486000
11
95.387920
21
228.958500
0
LINE
8
Layer 1
10
95.387920
20
228.958500
11
95.883788
21
232.459500
0
LINE
8
Layer 1
10
95.883788
20
232.459500
11
96.360196
21
234.150375
0
LINE
8
Layer 1
10
96.360196
20
234.150375
11
97.016986
21
235.764000
0
LINE
8
Layer 1
10
97.016986
20
235.764000
11
97.875204
21
237.272250
0
LINE
8
Layer 1
10
97.875204
20
237.272250
11
98.955900
21
238.647000
0
LINE
8
Layer 1
10
98.955900
20
238.647000
11
100.384942
21
239.879828
0
LINE
8
Layer 1
10
100.384942
20
239.879828
11
102.018613
21
240.755375
0
LINE
8
Layer 1
10
102.018613
20
240.755375
11
103.800952
21
241.289484
0
LINE
8
Layer 1
10
103.800952
20
241.289484
11
105.676000
21
241.498000
0
LINE
8
Layer 1
10
105.676000
20
241.498000
11
107.954621
21
241.340551
0
LINE
8
Layer 1
10
107.954621
20
241.340551
11
110.029594
21
240.786094
0
LINE
8
Layer 1
10
110.029594
20
240.786094
11
111.934832
21
239.902715
0
LINE
8
Layer 1
10
111.934832
20
239.902715
11
113.704250
21
238.758500
0
LINE
8
Layer 1
10
113.704250
20
238.758500
11
115.371762
21
237.421535
0
LINE
8
Layer 1
10
115.371762
20
237.421535
11
116.971281
21
235.959906
0
LINE
8
Layer 1
10
116.971281
20
235.959906
11
120.102000
21
232.935000
0
LINE
8
Layer 1
10
120.102000
20
232.935000
11
120.146500
21
235.937250
0
LINE
8
Layer 1
10
120.146500
20
235.937250
11
120.398000
21
238.929000
0
LINE
8
Layer 1
10
120.398000
20
238.929000
11
120.843008
21
241.422828
0
LINE
8
Layer 1
10
120.843008
20
241.422828
11
121.455785
21
243.757189
0
LINE
8
Layer 1
10
121.455785
20
243.757189
11
122.226208
21
245.944647
0
LINE
8
Layer 1
10
122.226208
20
245.944647
11
123.144156
21
247.997766
0
LINE
8
Layer 1
10
123.144156
20
247.997766
11
124.199506
21
249.929109
0
LINE
8
Layer 1
10
124.199506
20
249.929109
11
125.382137
21
251.751240
0
LINE
8
Layer 1
10
125.382137
20
251.751240
11
128.088750
21
255.118125
0
LINE
8
Layer 1
10
128.088750
20
255.118125
11
131.183020
21
258.198932
0
LINE
8
Layer 1
10
131.183020
20
258.198932
11
134.583969
21
261.094172
0
LINE
8
Layer 1
10
134.583969
20
261.094172
11
141.982000
21
266.730000
0
LINE
8
Layer 1
10
141.982000
20
266.730000
11
141.982000
21
266.730000
0
LINE
8
Layer 1
10
135.379000
20
32.701700
11
136.020469
21
31.300420
0
LINE
8
Layer 1
10
136.020469
20
31.300420
11
136.805750
21
28.693638
0
LINE
8
Layer 1
10
136.805750
20
28.693638
11
138.039000
21
24.166500
0
LINE
8
Layer 1
10
138.039000
20
24.166500
11
139.287141
21
20.621628
0
LINE
8
Layer 1
10
139.287141
20
20.621628
11
140.660625
21
17.116225
0
LINE
8
Layer 1
10
140.660625
20
17.116225
11
143.499000
21
10.146500
0
LINE
8
Layer 1
10
143.499000
20
10.146500
11
142.604000
21
9.307510
0
LINE
8
Layer 1
10
142.604000
20
9.307510
11
141.315000
21
8.077730
0
LINE
8
Layer 1
10
141.315000
20
8.077730
11
140.666563
21
9.478447
0
LINE
8
Layer 1
10
140.666563
20
9.478447
11
140.135500
21
10.956437
0
LINE
8
Layer 1
10
140.135500
20
10.956437
11
139.244000
21
13.951200
0
LINE
8
Layer 1
10
139.244000
20
13.951200
11
137.946391
21
18.592906
0
LINE
8
Layer 1
10
137.946391
20
18.592906
11
136.843125
21
23.234875
0
LINE
8
Layer 1
10
136.843125
20
23.234875
11
135.974047
21
27.922631
0
LINE
8
Layer 1
10
135.974047
20
27.922631
11
135.379000
21
32.701700
0
LINE
8
Layer 1
10
135.379000
20
32.701700
11
135.379000
21
32.701700
0
LINE
8
Layer 1
10
142.080000
20
262.741000
11
147.589375
21
257.683750
0
LINE
8
Layer 1
10
147.589375
20
257.683750
11
149.918648
21
255.221289
0
LINE
8
Layer 1
10
149.918648
20
255.221289
11
151.945250
21
252.666250
0
LINE
8
Layer 1
10
151.945250
20
252.666250
11
153.654883
21
249.916117
0
LINE
8
Layer 1
10
153.654883
20
249.916117
11
155.033250
21
246.868375
0
LINE
8
Layer 1
10
155.033250
20
246.868375
11
156.066055
21
243.420508
0
LINE
8
Layer 1
10
156.066055
20
243.420508
11
156.739000
21
239.470000
0
LINE
8
Layer 1
10
156.739000
20
239.470000
11
156.948875
21
235.220250
0
LINE
8
Layer 1
10
156.948875
20
235.220250
11
157.053016
21
233.084500
0
LINE
8
Layer 1
10
157.053016
20
233.084500
11
157.323000
21
231.101000
0
LINE
8
Layer 1
10
157.323000
20
231.101000
11
157.858250
21
229.661875
0
LINE
8
Layer 1
10
157.858250
20
229.661875
11
158.313562
21
229.039859
0
LINE
8
Layer 1
10
158.313562
20
229.039859
11
158.908000
21
228.564000
0
LINE
8
Layer 1
10
158.908000
20
228.564000
11
159.710430
21
228.303154
0
LINE
8
Layer 1
10
159.710430
20
228.303154
11
160.526500
21
228.376609
0
LINE
8
Layer 1
10
160.526500
20
228.376609
11
161.342008
21
228.709354
0
LINE
8
Layer 1
10
161.342008
20
228.709354
11
162.142750
21
229.226375
0
LINE
8
Layer 1
10
162.142750
20
229.226375
11
163.643125
21
230.513203
0
LINE
8
Layer 1
10
163.643125
20
230.513203
11
164.914000
21
231.637000
0
LINE
8
Layer 1
10
164.914000
20
231.637000
11
166.714250
21
232.787875
0
LINE
8
Layer 1
10
166.714250
20
232.787875
11
168.693000
21
233.584000
0
LINE
8
Layer 1
10
168.693000
20
233.584000
11
169.748484
21
233.781016
0
LINE
8
Layer 1
10
169.748484
20
233.781016
11
170.827875
21
233.798125
0
LINE
8
Layer 1
10
170.827875
20
233.798125
11
171.883078
21
233.606922
0
LINE
8
Layer 1
10
171.883078
20
233.606922
11
172.866000
21
233.179000
0
LINE
8
Layer 1
10
172.866000
20
233.179000
11
173.674422
21
232.549250
0
LINE
8
Layer 1
10
173.674422
20
232.549250
11
174.319625
21
231.762000
0
LINE
8
Layer 1
10
174.319625
20
231.762000
11
174.818016
21
230.866000
0
LINE
8
Layer 1
10
174.818016
20
230.866000
11
175.186000
21
229.910000
0
LINE
8
Layer 1
10
175.186000
20
229.910000
11
175.570720
21
228.368899
0
LINE
8
Layer 1
10
175.570720
20
228.368899
11
175.773945
21
226.795695
0
LINE
8
Layer 1
10
175.773945
20
226.795695
11
175.733063
21
223.581312
0
LINE
8
Layer 1
10
175.733063
20
223.581312
11
175.257648
21
220.323523
0
LINE
8
Layer 1
10
175.257648
20
220.323523
11
174.542000
21
217.079000
0
LINE
8
Layer 1
10
174.542000
20
217.079000
11
173.780414
21
213.904414
0
LINE
8
Layer 1
10
173.780414
20
213.904414
11
173.167187
21
210.856437
0
LINE
8
Layer 1
10
173.167187
20
210.856437
11
172.896617
21
207.991742
0
LINE
8
Layer 1
10
172.896617
20
207.991742
11
172.950546
21
206.645835
0
LINE
8
Layer 1
10
172.950546
20
206.645835
11
173.163000
21
205.367000
0
LINE
8
Layer 1
10
173.163000
20
205.367000
11
173.732500
21
203.880875
0
LINE
8
Layer 1
10
173.732500
20
203.880875
11
174.205031
21
203.252984
0
LINE
8
Layer 1
10
174.205031
20
203.252984
11
174.839000
21
202.763000
0
LINE
8
Layer 1
10
174.839000
20
202.763000
11
176.169803
21
202.343078
0
LINE
8
Layer 1
10
176.169803
20
202.343078
11
177.576297
21
202.441125
0
LINE
8
Layer 1
10
177.576297
20
202.441125
11
179.020361
21
202.941734
0
LINE
8
Layer 1
10
179.020361
20
202.941734
11
180.463875
21
203.729500
0
LINE
8
Layer 1
10
180.463875
20
203.729500
11
183.196766
21
205.704875
0
LINE
8
Layer 1
10
183.196766
20
205.704875
11
185.470000
21
207.444000
0
LINE
8
Layer 1
10
185.470000
20
207.444000
11
188.379125
21
209.175875
0
LINE
8
Layer 1
10
188.379125
20
209.175875
11
189.924016
21
209.884828
0
LINE
8
Layer 1
10
189.924016
20
209.884828
11
191.514000
21
210.442000
0
LINE
8
Layer 1
10
191.514000
20
210.442000
11
192.716438
21
210.721172
0
LINE
8
Layer 1
10
192.716438
20
210.721172
11
193.943250
21
210.824375
0
LINE
8
Layer 1
10
193.943250
20
210.824375
11
195.151688
21
210.680641
0
LINE
8
Layer 1
10
195.151688
20
210.680641
11
196.299000
21
210.219000
0
LINE
8
Layer 1
10
196.299000
20
210.219000
11
197.260641
21
209.454047
0
LINE
8
Layer 1
10
197.260641
20
209.454047
11
198.001125
21
208.474875
0
LINE
8
Layer 1
10
198.001125
20
208.474875
11
198.546047
21
207.360516
0
LINE
8
Layer 1
10
198.546047
20
207.360516
11
198.921000
21
206.190000
0
LINE
8
Layer 1
10
198.921000
20
206.190000
11
199.333625
21
203.544375
0
LINE
8
Layer 1
10
199.333625
20
203.544375
11
199.381000
21
200.865000
0
LINE
8
Layer 1
10
199.381000
20
200.865000
11
199.191633
21
198.224645
0
LINE
8
Layer 1
10
199.191633
20
198.224645
11
198.773562
21
195.648531
0
LINE
8
Layer 1
10
198.773562
20
195.648531
11
198.143711
21
193.136215
0
LINE
8
Layer 1
10
198.143711
20
193.136215
11
197.319000
21
190.687250
0
LINE
8
Layer 1
10
197.319000
20
190.687250
11
196.316352
21
188.301191
0
LINE
8
Layer 1
10
196.316352
20
188.301191
11
195.152687
21
185.977594
0
LINE
8
Layer 1
10
195.152687
20
185.977594
11
192.410000
21
181.516000
0
LINE
8
Layer 1
10
192.410000
20
181.516000
11
190.191375
21
178.688250
0
LINE
8
Layer 1
10
190.191375
20
178.688250
11
189.076766
21
177.277281
0
LINE
8
Layer 1
10
189.076766
20
177.277281
11
188.086000
21
175.799000
0
LINE
8
Layer 1
10
188.086000
20
175.799000
11
187.659922
21
174.949281
0
LINE
8
Layer 1
10
187.659922
20
174.949281
11
187.381125
21
174.058500
0
LINE
8
Layer 1
10
187.381125
20
174.058500
11
187.293016
21
173.136969
0
LINE
8
Layer 1
10
187.293016
20
173.136969
11
187.439000
21
172.195000
0
LINE
8
Layer 1
10
187.439000
20
172.195000
11
187.850125
21
171.356500
0
LINE
8
Layer 1
10
187.850125
20
171.356500
11
188.571000
21
170.773000
0
LINE
8
Layer 1
10
188.571000
20
170.773000
11
189.451500
21
170.496000
0
LINE
8
Layer 1
10
189.451500
20
170.496000
11
190.365000
21
170.558000
0
LINE
8
Layer 1
10
190.365000
20
170.558000
11
191.567297
21
171.077547
0
LINE
8
Layer 1
10
191.567297
20
171.077547
11
192.760875
21
171.773625
0
LINE
8
Layer 1
10
192.760875
20
171.773625
11
195.078000
21
173.227000
0
LINE
8
Layer 1
10
195.078000
20
173.227000
11
198.319500
21
174.877500
0
LINE
8
Layer 1
10
198.319500
20
174.877500
11
201.680000
21
176.269000
0
LINE
8
Layer 1
10
201.680000
20
176.269000
11
204.475893
21
177.200047
0
LINE
8
Layer 1
10
204.475893
20
177.200047
11
207.584828
21
177.992437
0
LINE
8
Layer 1
10
207.584828
20
177.992437
11
210.901818
21
178.602672
0
LINE
8
Layer 1
10
210.901818
20
178.602672
11
214.321875
21
178.987250
0
LINE
8
Layer 1
10
214.321875
20
178.987250
11
217.740010
21
179.102672
0
LINE
8
Layer 1
10
217.740010
20
179.102672
11
221.051234
21
178.905438
0
LINE
8
Layer 1
10
221.051234
20
178.905438
11
224.150561
21
178.352047
0
LINE
8
Layer 1
10
224.150561
20
178.352047
11
226.933000
21
177.399000
0
LINE
8
Layer 1
10
226.933000
20
177.399000
11
227.269734
21
175.559750
0
LINE
8
Layer 1
10
227.269734
20
175.559750
11
227.418125
21
173.649250
0
LINE
8
Layer 1
10
227.418125
20
173.649250
11
227.433000
21
169.847000
0
LINE
8
Layer 1
10
227.433000
20
169.847000
11
227.319393
21
167.428102
0
LINE
8
Layer 1
10
227.319393
20
167.428102
11
227.027719
21
165.117584
0
LINE
8
Layer 1
10
227.027719
20
165.117584
11
226.567014
21
162.909707
0
LINE
8
Layer 1
10
226.567014
20
162.909707
11
225.946312
21
160.798734
0
LINE
8
Layer 1
10
225.946312
20
160.798734
11
225.174650
21
158.778927
0
LINE
8
Layer 1
10
225.174650
20
158.778927
11
224.261062
21
156.844549
0
LINE
8
Layer 1
10
224.261062
20
156.844549
11
222.044250
21
153.209125
0
LINE
8
Layer 1
10
222.044250
20
153.209125
11
219.368156
21
149.846561
0
LINE
8
Layer 1
10
219.368156
20
149.846561
11
216.305063
21
146.710953
0
LINE
8
Layer 1
10
216.305063
20
146.710953
11
212.927250
21
143.756400
0
LINE
8
Layer 1
10
212.927250
20
143.756400
11
209.307000
21
140.937000
0
LINE
8
Layer 1
10
209.307000
20
140.937000
11
206.991750
21
139.339000
0
LINE
8
Layer 1
10
206.991750
20
139.339000
11
205.904438
21
138.352594
0
LINE
8
Layer 1
10
205.904438
20
138.352594
11
205.519125
21
137.820004
0
LINE
8
Layer 1
10
205.519125
20
137.820004
11
205.293000
21
137.264000
0
LINE
8
Layer 1
10
205.293000
20
137.264000
11
205.252000
21
137.041000
0
LINE
8
Layer 1
10
205.252000
20
137.041000
11
205.234000
21
136.815000
0
LINE
8
Layer 1
10
205.234000
20
136.815000
11
205.238000
21
136.588000
0
LINE
8
Layer 1
10
205.238000
20
136.588000
11
205.263000
21
136.363000
0
LINE
8
Layer 1
10
205.263000
20
136.363000
11
205.311000
21
136.142000
0
LINE
8
Layer 1
10
205.311000
20
136.142000
11
205.379000
21
135.926000
0
LINE
8
Layer 1
10
205.379000
20
135.926000
11
205.469000
21
135.718000
0
LINE
8
Layer 1
10
205.469000
20
135.718000
11
205.578000
21
135.519000
0
LINE
8
Layer 1
10
205.578000
20
135.519000
11
206.211125
21
134.876500
0
LINE
8
Layer 1
10
206.211125
20
134.876500
11
207.067000
21
134.597000
0
LINE
8
Layer 1
10
207.067000
20
134.597000
11
208.128078
21
134.646813
0
LINE
8
Layer 1
10
208.128078
20
134.646813
11
209.224125
21
134.845500
0
LINE
8
Layer 1
10
209.224125
20
134.845500
11
211.373000
21
135.319000
0
LINE
8
Layer 1
10
211.373000
20
135.319000
11
214.301562
21
135.647266
0
LINE
8
Layer 1
10
214.301562
20
135.647266
11
217.334000
21
135.691375
0
LINE
8
Layer 1
10
217.334000
20
135.691375
11
220.354437
21
135.455547
0
LINE
8
Layer 1
10
220.354437
20
135.455547
11
223.247000
21
134.944000
0
LINE
8
Layer 1
10
223.247000
20
134.944000
11
225.232312
21
134.391406
0
LINE
8
Layer 1
10
225.232312
20
134.391406
11
227.176000
21
133.581750
0
LINE
8
Layer 1
10
227.176000
20
133.581750
11
228.902938
21
132.432719
0
LINE
8
Layer 1
10
228.902938
20
132.432719
11
229.630398
21
131.705215
0
LINE
8
Layer 1
10
229.630398
20
131.705215
11
230.238000
21
130.862000
0
LINE
8
Layer 1
10
230.238000
20
130.862000
11
230.708719
21
129.800297
0
LINE
8
Layer 1
10
230.708719
20
129.800297
11
230.907000
21
128.701375
0
LINE
8
Layer 1
10
230.907000
20
128.701375
11
230.872781
21
127.578266
0
LINE
8
Layer 1
10
230.872781
20
127.578266
11
230.646000
21
126.444000
0
LINE
8
Layer 1
10
230.646000
20
126.444000
11
230.078484
21
124.837625
0
LINE
8
Layer 1
10
230.078484
20
124.837625
11
229.315875
21
123.299500
0
LINE
8
Layer 1
10
229.315875
20
123.299500
11
227.472000
21
120.413000
0
LINE
8
Layer 1
10
227.472000
20
120.413000
11
225.675982
21
118.004982
0
LINE
8
Layer 1
10
225.675982
20
118.004982
11
223.786109
21
115.809109
0
LINE
8
Layer 1
10
223.786109
20
115.809109
11
221.790275
21
113.807650
0
LINE
8
Layer 1
10
221.790275
20
113.807650
11
219.676375
21
111.982875
0
LINE
8
Layer 1
10
219.676375
20
111.982875
11
217.432303
21
110.317053
0
LINE
8
Layer 1
10
217.432303
20
110.317053
11
215.045953
21
108.792453
0
LINE
8
Layer 1
10
215.045953
20
108.792453
11
212.505221
21
107.391346
0
LINE
8
Layer 1
10
212.505221
20
107.391346
11
209.798000
21
106.096000
0
LINE
8
Layer 1
10
209.798000
20
106.096000
11
204.154125
21
103.917750
0
LINE
8
Layer 1
10
204.154125
20
103.917750
11
201.306641
21
102.795250
0
LINE
8
Layer 1
10
201.306641
20
102.795250
11
198.724000
21
101.528000
0
LINE
8
Layer 1
10
198.724000
20
101.528000
11
197.339625
21
100.460662
0
LINE
8
Layer 1
10
197.339625
20
100.460662
11
196.797016
21
99.759486
0
LINE
8
Layer 1
10
196.797016
20
99.759486
11
196.469000
21
98.968300
0
LINE
8
Layer 1
10
196.469000
20
98.968300
11
196.443225
21
98.339383
0
LINE
8
Layer 1
10
196.443225
20
98.339383
11
196.657113
21
97.787158
0
LINE
8
Layer 1
10
196.657113
20
97.787158
11
197.081171
21
97.300560
0
LINE
8
Layer 1
10
197.081171
20
97.300560
11
197.685906
21
96.868527
0
LINE
8
Layer 1
10
197.685906
20
96.868527
11
199.319434
21
96.123897
0
LINE
8
Layer 1
10
199.319434
20
96.123897
11
201.321750
21
95.464763
0
LINE
8
Layer 1
10
201.321750
20
95.464763
11
203.456910
21
94.802613
0
LINE
8
Layer 1
10
203.456910
20
94.802613
11
205.488969
21
94.048942
0
LINE
8
Layer 1
10
205.488969
20
94.048942
11
207.181980
21
93.115240
0
LINE
8
Layer 1
10
207.181980
20
93.115240
11
207.827611
21
92.553219
0
LINE
8
Layer 1
10
207.827611
20
92.553219
11
208.300000
21
91.913000
0
LINE
8
Layer 1
10
208.300000
20
91.913000
11
208.565969
21
91.200613
0
LINE
8
Layer 1
10
208.565969
20
91.200613
11
208.627750
21
90.467825
0
LINE
8
Layer 1
10
208.627750
20
90.467825
11
208.330000
21
88.997300
0
LINE
8
Layer 1
10
208.330000
20
88.997300
11
207.717141
21
87.557866
0
LINE
8
Layer 1
10
207.717141
20
87.557866
11
206.901125
21
86.187825
0
LINE
8
Layer 1
10
206.901125
20
86.187825
11
204.918000
21
83.726200
0
LINE
8
Layer 1
10
204.918000
20
83.726200
11
202.485822
21
81.429901
0
LINE
8
Layer 1
10
202.485822
20
81.429901
11
199.793828
21
79.437059
0
LINE
8
Layer 1
10
199.793828
20
79.437059
11
196.888576
21
77.727844
0
LINE
8
Layer 1
10
196.888576
20
77.727844
11
193.816625
21
76.282425
0
LINE
8
Layer 1
10
193.816625
20
76.282425
11
190.624533
21
75.080971
0
LINE
8
Layer 1
10
190.624533
20
75.080971
11
187.358859
21
74.103653
0
LINE
8
Layer 1
10
187.358859
20
74.103653
11
184.066162
21
73.330639
0
LINE
8
Layer 1
10
184.066162
20
73.330639
11
180.793000
21
72.742100
0
LINE
8
Layer 1
10
180.793000
20
72.742100
11
176.758375
21
72.330563
0
LINE
8
Layer 1
10
176.758375
20
72.330563
11
174.538141
21
72.057073
0
LINE
8
Layer 1
10
174.538141
20
72.057073
11
173.179000
21
71.718400
0
LINE
8
Layer 1
10
173.179000
20
71.718400
11
172.606125
21
71.187213
0
LINE
8
Layer 1
10
172.606125
20
71.187213
11
172.283000
21
70.472500
0
LINE
8
Layer 1
10
172.283000
20
70.472500
11
172.218728
21
69.857427
0
LINE
8
Layer 1
10
172.218728
20
69.857427
11
172.326639
21
69.312798
0
LINE
8
Layer 1
10
172.326639
20
69.312798
11
172.973359
21
68.402777
0
LINE
8
Layer 1
10
172.973359
20
68.402777
11
174.051869
21
67.678251
0
LINE
8
Layer 1
10
174.051869
20
67.678251
11
175.390875
21
67.075037
0
LINE
8
Layer 1
10
175.390875
20
67.075037
11
178.165203
21
65.975805
0
LINE
8
Layer 1
10
178.165203
20
65.975805
11
179.257939
21
65.351416
0
LINE
8
Layer 1
10
179.257939
20
65.351416
11
179.926000
21
64.591600
0
LINE
8
Layer 1
10
179.926000
20
64.591600
11
180.084125
21
63.904238
0
LINE
8
Layer 1
10
180.084125
20
63.904238
11
179.952000
21
63.209900
0
LINE
8
Layer 1
10
179.952000
20
63.209900
11
179.396484
21
62.105622
0
LINE
8
Layer 1
10
179.396484
20
62.105622
11
178.609875
21
61.054725
0
LINE
8
Layer 1
10
178.609875
20
61.054725
11
176.808000
21
59.233300
0
LINE
8
Layer 1
10
176.808000
20
59.233300
11
174.070367
21
56.975367
0
LINE
8
Layer 1
10
174.070367
20
56.975367
11
171.187375
21
55.014370
0
LINE
8
Layer 1
10
171.187375
20
55.014370
11
168.187758
21
53.285810
0
LINE
8
Layer 1
10
168.187758
20
53.285810
11
165.100250
21
51.725187
0
LINE
8
Layer 1
10
165.100250
20
51.725187
11
158.776500
21
48.849761
0
LINE
8
Layer 1
10
158.776500
20
48.849761
11
152.446000
21
45.872100
0
LINE
8
Layer 1
10
152.446000
20
45.872100
11
150.074437
21
44.516879
0
LINE
8
Layer 1
10
150.074437
20
44.516879
11
147.870500
21
42.965348
0
LINE
8
Layer 1
10
147.870500
20
42.965348
11
145.845062
21
41.226035
0
LINE
8
Layer 1
10
145.845062
20
41.226035
11
144.009000
21
39.307462
0
LINE
8
Layer 1
10
144.009000
20
39.307462
11
142.373188
21
37.218158
0
LINE
8
Layer 1
10
142.373188
20
37.218158
11
140.948500
21
34.966645
0
LINE
8
Layer 1
10
140.948500
20
34.966645
11
139.745812
21
32.561451
0
LINE
8
Layer 1
10
139.745812
20
32.561451
11
138.776000
21
30.011100
0
LINE
8
Layer 1
10
138.776000
20
30.011100
11
138.339000
21
31.164700
0
LINE
8
Layer 1
10
138.339000
20
31.164700
11
137.690500
21
33.196350
0
LINE
8
Layer 1
10
137.690500
20
33.196350
11
137.209000
21
35.273900
0
LINE
8
Layer 1
10
137.209000
20
35.273900
11
136.469375
21
40.785675
0
LINE
8
Layer 1
10
136.469375
20
40.785675
11
136.157828
21
44.057113
0
LINE
8
Layer 1
10
136.157828
20
44.057113
11
136.089000
21
46.209700
0
LINE
8
Layer 1
10
136.089000
20
46.209700
11
136.305750
21
47.214287
0
LINE
8
Layer 1
10
136.305750
20
47.214287
11
136.701000
21
48.166300
0
LINE
8
Layer 1
10
136.701000
20
48.166300
11
137.724269
21
50.127924
0
LINE
8
Layer 1
10
137.724269
20
50.127924
11
138.843557
21
51.954136
0
LINE
8
Layer 1
10
138.843557
20
51.954136
11
141.353578
21
55.228247
0
LINE
8
Layer 1
10
141.353578
20
55.228247
11
144.197842
21
58.044479
0
LINE
8
Layer 1
10
144.197842
20
58.044479
11
147.343125
21
60.458675
0
LINE
8
Layer 1
10
147.343125
20
60.458675
11
150.756205
21
62.526681
0
LINE
8
Layer 1
10
150.756205
20
62.526681
11
154.403859
21
64.304341
0
LINE
8
Layer 1
10
154.403859
20
64.304341
11
158.252865
21
65.847499
0
LINE
8
Layer 1
10
158.252865
20
65.847499
11
162.270000
21
67.212000
0
LINE
8
Layer 1
10
162.270000
20
67.212000
11
166.232250
21
68.322125
0
LINE
8
Layer 1
10
166.232250
20
68.322125
11
170.169000
21
69.497500
0
LINE
8
Layer 1
10
170.169000
20
69.497500
11
165.899344
21
68.944580
0
LINE
8
Layer 1
10
165.899344
20
68.944580
11
161.124000
21
67.983013
0
LINE
8
Layer 1
10
161.124000
20
67.983013
11
156.402656
21
66.739464
0
LINE
8
Layer 1
10
156.402656
20
66.739464
11
152.295000
21
65.340600
0
LINE
8
Layer 1
10
152.295000
20
65.340600
11
149.408799
21
64.018641
0
LINE
8
Layer 1
10
149.408799
20
64.018641
11
146.776203
21
62.452670
0
LINE
8
Layer 1
10
146.776203
20
62.452670
11
144.385600
21
60.651662
0
LINE
8
Layer 1
10
144.385600
20
60.651662
11
142.225375
21
58.624587
0
LINE
8
Layer 1
10
142.225375
20
58.624587
11
140.283916
21
56.380421
0
LINE
8
Layer 1
10
140.283916
20
56.380421
11
138.549609
21
53.928136
0
LINE
8
Layer 1
10
138.549609
20
53.928136
11
137.010842
21
51.276704
0
LINE
8
Layer 1
10
137.010842
20
51.276704
11
135.656000
21
48.435100
0
LINE
8
Layer 1
10
135.656000
20
48.435100
11
135.117125
21
52.903125
0
LINE
8
Layer 1
10
135.117125
20
52.903125
11
134.935578
21
55.338859
0
LINE
8
Layer 1
10
134.935578
20
55.338859
11
134.978000
21
57.250700
0
LINE
8
Layer 1
10
134.978000
20
57.250700
11
135.276672
21
58.471602
0
LINE
8
Layer 1
10
135.276672
20
58.471602
11
135.851813
21
60.000108
0
LINE
8
Layer 1
10
135.851813
20
60.000108
11
137.539750
21
63.557388
0
LINE
8
Layer 1
10
137.539750
20
63.557388
11
139.458313
21
67.077448
0
LINE
8
Layer 1
10
139.458313
20
67.077448
11
141.024000
21
69.715200
0
LINE
8
Layer 1
10
141.024000
20
69.715200
11
143.895385
21
73.908308
0
LINE
8
Layer 1
10
143.895385
20
73.908308
11
147.057078
21
77.787423
0
LINE
8
Layer 1
10
147.057078
20
77.787423
11
150.485514
21
81.376192
0
LINE
8
Layer 1
10
150.485514
20
81.376192
11
154.157125
21
84.698262
0
LINE
8
Layer 1
10
154.157125
20
84.698262
11
158.048346
21
87.777281
0
LINE
8
Layer 1
10
158.048346
20
87.777281
11
162.135609
21
90.636895
0
LINE
8
Layer 1
10
162.135609
20
90.636895
11
166.395350
21
93.300753
0
LINE
8
Layer 1
10
166.395350
20
93.300753
11
170.804000
21
95.792500
0
LINE
8
Layer 1
10
170.804000
20
95.792500
11
180.709563
21
100.883492
0
LINE
8
Layer 1
10
180.709563
20
100.883492
11
190.243500
21
105.830813
0
LINE
8
Layer 1
10
190.243500
20
105.830813
11
194.866070
21
108.509858
0
LINE
8
Layer 1
10
194.866070
20
108.509858
11
199.389688
21
111.464102
0
LINE
8
Layer 1
10
199.389688
20
111.464102
11
203.812336
21
114.797247
0
LINE
8
Layer 1
10
203.812336
20
114.797247
11
208.132000
21
118.613000
0
LINE
8
Layer 1
10
208.132000
20
118.613000
11
211.377250
21
121.672750
0
LINE
8
Layer 1
10
211.377250
20
121.672750
11
212.942219
21
123.323937
0
LINE
8
Layer 1
10
212.942219
20
123.323937
11
214.240000
21
125.028000
0
LINE
8
Layer 1
10
214.240000
20
125.028000
11
208.784125
21
120.122500
0
LINE
8
Layer 1
10
208.784125
20
120.122500
11
205.995297
21
117.747000
0
LINE
8
Layer 1
10
205.995297
20
117.747000
11
203.026000
21
115.577000
0
LINE
8
Layer 1
10
203.026000
20
115.577000
11
196.013500
21
111.310750
0
LINE
8
Layer 1
10
196.013500
20
111.310750
11
188.802000
21
107.390000
0
LINE
8
Layer 1
10
188.802000
20
107.390000
11
176.462000
21
101.441000
0
LINE
8
Layer 1
10
176.462000
20
101.441000
11
171.935207
21
99.156108
0
LINE
8
Layer 1
10
171.935207
20
99.156108
11
167.431406
21
96.727658
0
LINE
8
Layer 1
10
167.431406
20
96.727658
11
162.999090
21
94.128801
0
LINE
8
Layer 1
10
162.999090
20
94.128801
11
158.686750
21
91.332687
0
LINE
8
Layer 1
10
158.686750
20
91.332687
11
154.542879
21
88.312470
0
LINE
8
Layer 1
10
154.542879
20
88.312470
11
150.615969
21
85.041298
0
LINE
8
Layer 1
10
150.615969
20
85.041298
11
146.954512
21
81.492325
0
LINE
8
Layer 1
10
146.954512
20
81.492325
11
143.607000
21
77.638700
0
LINE
8
Layer 1
10
143.607000
20
77.638700
11
140.908641
21
73.921928
0
LINE
8
Layer 1
10
140.908641
20
73.921928
11
138.502875
21
70.017600
0
LINE
8
Layer 1
10
138.502875
20
70.017600
11
136.357922
21
65.961172
0
LINE
8
Layer 1
10
136.357922
20
65.961172
11
134.442000
21
61.788100
0
LINE
8
Layer 1
10
134.442000
20
61.788100
11
134.026750
21
69.836875
0
LINE
8
Layer 1
10
134.026750
20
69.836875
11
133.773000
21
77.892400
0
LINE
8
Layer 1
10
133.773000
20
77.892400
11
133.615000
21
81.158175
0
LINE
8
Layer 1
10
133.615000
20
81.158175
11
133.624781
21
82.842456
0
LINE
8
Layer 1
10
133.624781
20
82.842456
11
133.829000
21
84.349100
0
LINE
8
Layer 1
10
133.829000
20
84.349100
11
134.613844
21
86.495480
0
LINE
8
Layer 1
10
134.613844
20
86.495480
11
135.882250
21
89.146637
0
LINE
8
Layer 1
10
135.882250
20
89.146637
11
138.429000
21
93.877800
0
LINE
8
Layer 1
10
138.429000
20
93.877800
11
140.067812
21
96.656817
0
LINE
8
Layer 1
10
140.067812
20
96.656817
11
141.835250
21
99.336637
0
LINE
8
Layer 1
10
141.835250
20
99.336637
11
145.717000
21
104.469000
0
LINE
8
Layer 1
10
145.717000
20
104.469000
11
148.336047
21
107.528613
0
LINE
8
Layer 1
10
148.336047
20
107.528613
11
150.972438
21
110.319844
0
LINE
8
Layer 1
10
150.972438
20
110.319844
11
153.655422
21
112.891277
0
LINE
8
Layer 1
10
153.655422
20
112.891277
11
156.414250
21
115.291500
0
LINE
8
Layer 1
10
156.414250
20
115.291500
11
162.276437
21
119.772656
0
LINE
8
Layer 1
10
162.276437
20
119.772656
11
168.793000
21
124.152000
0
LINE
8
Layer 1
10
168.793000
20
124.152000
11
174.296375
21
127.553000
0
LINE
8
Layer 1
10
174.296375
20
127.553000
11
179.760000
21
131.017000
0
LINE
8
Layer 1
10
179.760000
20
131.017000
11
186.460000
21
135.737000
0
LINE
8
Layer 1
10
186.460000
20
135.737000
11
192.896000
21
140.810000
0
LINE
8
Layer 1
10
192.896000
20
140.810000
11
199.052000
21
146.220000
0
LINE
8
Layer 1
10
199.052000
20
146.220000
11
204.908000
21
151.952000
0
LINE
8
Layer 1
10
204.908000
20
151.952000
11
207.414484
21
154.700750
0
LINE
8
Layer 1
10
207.414484
20
154.700750
11
210.376875
21
158.201750
0
LINE
8
Layer 1
10
210.376875
20
158.201750
11
213.158328
21
161.814875
0
LINE
8
Layer 1
10
213.158328
20
161.814875
11
215.122000
21
164.900000
0
LINE
8
Layer 1
10
215.122000
20
164.900000
11
215.058000
21
164.947000
0
LINE
8
Layer 1
10
215.058000
20
164.947000
11
212.045000
21
161.301250
0
LINE
8
Layer 1
10
212.045000
20
161.301250
11
208.945000
21
157.723000
0
LINE
8
Layer 1
10
208.945000
20
157.723000
11
203.227937
21
152.119578
0
LINE
8
Layer 1
10
203.227937
20
152.119578
11
196.953250
21
146.666625
0
LINE
8
Layer 1
10
196.953250
20
146.666625
11
190.429187
21
141.486859
0
LINE
8
Layer 1
10
190.429187
20
141.486859
11
183.964000
21
136.703000
0
LINE
8
Layer 1
10
183.964000
20
136.703000
11
180.165000
21
133.983375
0
LINE
8
Layer 1
10
180.165000
20
133.983375
11
176.282000
21
131.395000
0
LINE
8
Layer 1
10
176.282000
20
131.395000
11
171.069625
21
128.318125
0
LINE
8
Layer 1
10
171.069625
20
128.318125
11
165.891000
21
125.185000
0
LINE
8
Layer 1
10
165.891000
20
125.185000
11
161.398551
21
122.135754
0
LINE
8
Layer 1
10
161.398551
20
122.135754
11
157.107031
21
118.929030
0
LINE
8
Layer 1
10
157.107031
20
118.929030
11
153.034184
21
115.537100
0
LINE
8
Layer 1
10
153.034184
20
115.537100
11
149.197750
21
111.932238
0
LINE
8
Layer 1
10
149.197750
20
111.932238
11
145.615473
21
108.086714
0
LINE
8
Layer 1
10
145.615473
20
108.086714
11
142.305094
21
103.972802
0
LINE
8
Layer 1
10
142.305094
20
103.972802
11
139.284355
21
99.562773
0
LINE
8
Layer 1
10
139.284355
20
99.562773
11
136.571000
21
94.828900
0
LINE
8
Layer 1
10
136.571000
20
94.828900
11
134.979625
21
91.679100
0
LINE
8
Layer 1
10
134.979625
20
91.679100
11
133.575000
21
88.443800
0
LINE
8
Layer 1
10
133.575000
20
88.443800
11
133.796875
21
91.541609
0
LINE
8
Layer 1
10
133.796875
20
91.541609
11
133.832000
21
94.722125
0
LINE
8
Layer 1
10
133.832000
20
94.722125
11
133.753000
21
101.039000
0
LINE
8
Layer 1
10
133.753000
20
101.039000
11
133.917250
21
111.413375
0
LINE
8
Layer 1
10
133.917250
20
111.413375
11
134.194000
21
121.787000
0
LINE
8
Layer 1
10
134.194000
20
121.787000
11
134.316750
21
128.452750
0
LINE
8
Layer 1
10
134.316750
20
128.452750
11
134.459500
21
131.792188
0
LINE
8
Layer 1
10
134.459500
20
131.792188
11
134.762000
21
135.090000
0
LINE
8
Layer 1
10
134.762000
20
135.090000
11
138.289125
21
139.036250
0
LINE
8
Layer 1
10
138.289125
20
139.036250
11
142.003000
21
142.816000
0
LINE
8
Layer 1
10
142.003000
20
142.816000
11
151.085375
21
151.822875
0
LINE
8
Layer 1
10
151.085375
20
151.822875
11
160.257000
21
160.739000
0
LINE
8
Layer 1
10
160.257000
20
160.739000
11
167.741781
21
168.192906
0
LINE
8
Layer 1
10
167.741781
20
168.192906
11
171.467871
21
172.146887
0
LINE
8
Layer 1
10
171.467871
20
172.146887
11
175.043750
21
176.265750
0
LINE
8
Layer 1
10
175.043750
20
176.265750
11
178.364910
21
180.559645
0
LINE
8
Layer 1
10
178.364910
20
180.559645
11
181.326844
21
185.038719
0
LINE
8
Layer 1
10
181.326844
20
185.038719
11
183.825043
21
189.713121
0
LINE
8
Layer 1
10
183.825043
20
189.713121
11
184.867583
21
192.126742
0
LINE
8
Layer 1
10
184.867583
20
192.126742
11
185.755000
21
194.593000
0
LINE
8
Layer 1
10
185.755000
20
194.593000
11
183.802608
21
191.327823
0
LINE
8
Layer 1
10
183.802608
20
191.327823
11
181.750508
21
188.185475
0
LINE
8
Layer 1
10
181.750508
20
188.185475
11
177.376125
21
182.223859
0
LINE
8
Layer 1
10
177.376125
20
182.223859
11
172.689742
21
176.617346
0
LINE
8
Layer 1
10
172.689742
20
176.617346
11
167.749250
21
171.275125
0
LINE
8
Layer 1
10
167.749250
20
171.275125
11
162.612539
21
166.106389
0
LINE
8
Layer 1
10
162.612539
20
166.106389
11
157.337500
21
161.020328
0
LINE
8
Layer 1
10
157.337500
20
161.020328
11
146.604000
21
150.733000
0
LINE
8
Layer 1
10
146.604000
20
150.733000
11
140.525750
21
144.724375
0
LINE
8
Layer 1
10
140.525750
20
144.724375
11
137.597250
21
141.632172
0
LINE
8
Layer 1
10
137.597250
20
141.632172
11
134.797000
21
138.388000
0
LINE
8
Layer 1
10
134.797000
20
138.388000
11
134.941375
21
141.907625
0
LINE
8
Layer 1
10
134.941375
20
141.907625
11
135.181000
21
145.428000
0
LINE
8
Layer 1
10
135.181000
20
145.428000
11
136.336000
21
165.554000
0
LINE
8
Layer 1
10
136.336000
20
165.554000
11
136.844625
21
176.165750
0
LINE
8
Layer 1
10
136.844625
20
176.165750
11
137.170609
21
181.473313
0
LINE
8
Layer 1
10
137.170609
20
181.473313
11
137.720000
21
186.740000
0
LINE
8
Layer 1
10
137.720000
20
186.740000
11
139.843000
21
188.087000
0
LINE
8
Layer 1
10
139.843000
20
188.087000
11
142.914000
21
190.527000
0
LINE
8
Layer 1
10
142.914000
20
190.527000
11
145.859000
21
193.118000
0
LINE
8
Layer 1
10
145.859000
20
193.118000
11
148.670000
21
195.853000
0
LINE
8
Layer 1
10
148.670000
20
195.853000
11
151.341000
21
198.726000
0
LINE
8
Layer 1
10
151.341000
20
198.726000
11
153.865000
21
201.729000
0
LINE
8
Layer 1
10
153.865000
20
201.729000
11
156.235000
21
204.855000
0
LINE
8
Layer 1
10
156.235000
20
204.855000
11
158.445000
21
208.095000
0
LINE
8
Layer 1
10
158.445000
20
208.095000
11
160.491000
21
211.442000
0
LINE
8
Layer 1
10
160.491000
20
211.442000
11
163.087000
21
216.261000
0
LINE
8
Layer 1
10
163.087000
20
216.261000
11
165.072250
21
220.061500
0
LINE
8
Layer 1
10
165.072250
20
220.061500
11
165.997937
21
222.170062
0
LINE
8
Layer 1
10
165.997937
20
222.170062
11
166.513000
21
223.955000
0
LINE
8
Layer 1
10
166.513000
20
223.955000
11
166.366000
21
223.780000
0
LINE
8
Layer 1
10
166.366000
20
223.780000
11
166.396000
21
223.674000
0
LINE
8
Layer 1
10
166.396000
20
223.674000
11
166.007875
21
223.123609
0
LINE
8
Layer 1
10
166.007875
20
223.123609
11
165.667750
21
222.405875
0
LINE
8
Layer 1
10
165.667750
20
222.405875
11
165.073000
21
220.984000
0
LINE
8
Layer 1
10
165.073000
20
220.984000
11
163.623750
21
218.251625
0
LINE
8
Layer 1
10
163.623750
20
218.251625
11
162.047000
21
215.589000
0
LINE
8
Layer 1
10
162.047000
20
215.589000
11
157.774188
21
209.150328
0
LINE
8
Layer 1
10
157.774188
20
209.150328
11
155.427781
21
206.000115
0
LINE
8
Layer 1
10
155.427781
20
206.000115
11
152.952750
21
202.928875
0
LINE
8
Layer 1
10
152.952750
20
202.928875
11
150.357625
21
199.961275
0
LINE
8
Layer 1
10
150.357625
20
199.961275
11
147.650938
21
197.121984
0
LINE
8
Layer 1
10
147.650938
20
197.121984
11
144.841219
21
194.435670
0
LINE
8
Layer 1
10
144.841219
20
194.435670
11
141.937000
21
191.927000
0
LINE
8
Layer 1
10
141.937000
20
191.927000
11
137.739000
21
188.632000
0
LINE
8
Layer 1
10
137.739000
20
188.632000
11
139.123000
21
208.022500
0
LINE
8
Layer 1
10
139.123000
20
208.022500
11
140.657000
21
227.402000
0
LINE
8
Layer 1
10
140.657000
20
227.402000
11
141.410000
21
236.073000
0
LINE
8
Layer 1
10
141.410000
20
236.073000
11
141.728125
21
238.909125
0
LINE
8
Layer 1
10
141.728125
20
238.909125
11
141.921000
21
241.752000
0
LINE
8
Layer 1
10
141.921000
20
241.752000
11
141.485875
21
239.785500
0
LINE
8
Layer 1
10
141.485875
20
239.785500
11
141.158000
21
237.795000
0
LINE
8
Layer 1
10
141.158000
20
237.795000
11
140.330000
21
232.144750
0
LINE
8
Layer 1
10
140.330000
20
232.144750
11
139.631000
21
226.475000
0
LINE
8
Layer 1
10
139.631000
20
226.475000
11
136.814000
21
200.168000
0
LINE
8
Layer 1
10
136.814000
20
200.168000
11
136.066625
21
191.248875
0
LINE
8
Layer 1
10
136.066625
20
191.248875
11
135.218000
21
182.338000
0
LINE
8
Layer 1
10
135.218000
20
182.338000
11
131.757625
21
186.500125
0
LINE
8
Layer 1
10
131.757625
20
186.500125
11
128.340000
21
190.705000
0
LINE
8
Layer 1
10
128.340000
20
190.705000
11
123.838281
21
197.398281
0
LINE
8
Layer 1
10
123.838281
20
197.398281
11
119.771000
21
204.424000
0
LINE
8
Layer 1
10
119.771000
20
204.424000
11
116.158219
21
211.694969
0
LINE
8
Layer 1
10
116.158219
20
211.694969
11
113.020000
21
219.124000
0
LINE
8
Layer 1
10
113.020000
20
219.124000
11
111.935750
21
221.899375
0
LINE
8
Layer 1
10
111.935750
20
221.899375
11
111.471438
21
223.325172
0
LINE
8
Layer 1
10
111.471438
20
223.325172
11
111.153000
21
224.761000
0
LINE
8
Layer 1
10
111.153000
20
224.761000
11
111.127000
21
224.944000
0
LINE
8
Layer 1
10
111.127000
20
224.944000
11
110.723000
21
225.058000
0
LINE
8
Layer 1
10
110.723000
20
225.058000
11
110.926000
21
225.107000
0
LINE
8
Layer 1
10
110.926000
20
225.107000
11
110.860000
21
224.761000
0
LINE
8
Layer 1
10
110.860000
20
224.761000
11
112.916000
21
218.186000
0
LINE
8
Layer 1
10
112.916000
20
218.186000
11
115.854281
21
210.235938
0
LINE
8
Layer 1
10
115.854281
20
210.235938
11
117.533035
21
206.339469
0
LINE
8
Layer 1
10
117.533035
20
206.339469
11
119.360500
21
202.511250
0
LINE
8
Layer 1
10
119.360500
20
202.511250
11
121.343402
21
198.763188
0
LINE
8
Layer 1
10
121.343402
20
198.763188
11
123.488469
21
195.107188
0
LINE
8
Layer 1
10
123.488469
20
195.107188
11
125.802426
21
191.555156
0
LINE
8
Layer 1
10
125.802426
20
191.555156
11
128.292000
21
188.119000
0
LINE
8
Layer 1
10
128.292000
20
188.119000
11
131.612750
21
184.079125
0
LINE
8
Layer 1
10
131.612750
20
184.079125
11
135.118000
21
180.196000
0
LINE
8
Layer 1
10
135.118000
20
180.196000
11
134.666547
21
176.958203
0
LINE
8
Layer 1
10
134.666547
20
176.958203
11
134.366875
21
173.672125
0
LINE
8
Layer 1
10
134.366875
20
173.672125
11
133.882000
21
167.107000
0
LINE
8
Layer 1
10
133.882000
20
167.107000
11
132.861875
21
156.048250
0
LINE
8
Layer 1
10
132.861875
20
156.048250
11
132.054000
21
144.973000
0
LINE
8
Layer 1
10
132.054000
20
144.973000
11
130.199000
21
149.302000
0
LINE
8
Layer 1
10
130.199000
20
149.302000
11
127.897281
21
153.371879
0
LINE
8
Layer 1
10
127.897281
20
153.371879
11
125.340187
21
156.987469
0
LINE
8
Layer 1
10
125.340187
20
156.987469
11
122.563063
21
160.255949
0
LINE
8
Layer 1
10
122.563063
20
160.255949
11
119.601250
21
163.284500
0
LINE
8
Layer 1
10
119.601250
20
163.284500
11
113.264938
21
169.050531
0
LINE
8
Layer 1
10
113.264938
20
169.050531
11
106.614000
21
175.143000
0
LINE
8
Layer 1
10
106.614000
20
175.143000
11
101.569000
21
180.379000
0
LINE
8
Layer 1
10
101.569000
20
180.379000
11
96.872800
21
185.929000
0
LINE
8
Layer 1
10
96.872800
20
185.929000
11
92.544500
21
191.771000
0
LINE
8
Layer 1
10
92.544500
20
191.771000
11
88.602500
21
197.880000
0
LINE
8
Layer 1
10
88.602500
20
197.880000
11
88.829500
21
198.125000
0
LINE
8
Layer 1
10
88.829500
20
198.125000
11
88.427600
21
198.159000
0
LINE
8
Layer 1
10
88.427600
20
198.159000
11
88.512500
21
198.032000
0
LINE
8
Layer 1
10
88.512500
20
198.032000
11
88.401400
21
198.110000
0
LINE
8
Layer 1
10
88.401400
20
198.110000
11
89.244578
21
196.199266
0
LINE
8
Layer 1
10
89.244578
20
196.199266
11
90.288850
21
194.301375
0
LINE
8
Layer 1
10
90.288850
20
194.301375
11
92.558800
21
190.681000
0
LINE
8
Layer 1
10
92.558800
20
190.681000
11
96.756055
21
184.611344
0
LINE
8
Layer 1
10
96.756055
20
184.611344
11
101.324737
21
178.931500
0
LINE
8
Layer 1
10
101.324737
20
178.931500
11
106.227002
21
173.530656
0
LINE
8
Layer 1
10
106.227002
20
173.530656
11
111.425000
21
168.298000
0
LINE
8
Layer 1
10
111.425000
20
168.298000
11
118.529000
21
161.565000
0
LINE
8
Layer 1
10
118.529000
20
161.565000
11
122.524875
21
157.135312
0
LINE
8
Layer 1
10
122.524875
20
157.135312
11
124.476664
21
154.631977
0
LINE
8
Layer 1
10
124.476664
20
154.631977
11
126.316750
21
151.990500
0
LINE
8
Layer 1
10
126.316750
20
151.990500
11
127.984430
21
149.251523
0
LINE
8
Layer 1
10
127.984430
20
149.251523
11
129.419000
21
146.455688
0
LINE
8
Layer 1
10
129.419000
20
146.455688
11
130.559758
21
143.643633
0
LINE
8
Layer 1
10
130.559758
20
143.643633
11
131.346000
21
140.856000
0
LINE
8
Layer 1
10
131.346000
20
140.856000
11
131.553641
21
139.147734
0
LINE
8
Layer 1
10
131.553641
20
139.147734
11
131.547625
21
137.359875
0
LINE
8
Layer 1
10
131.547625
20
137.359875
11
131.333000
21
133.830000
0
LINE
8
Layer 1
10
131.333000
20
133.830000
11
130.986000
21
124.593000
0
LINE
8
Layer 1
10
130.986000
20
124.593000
11
130.648750
21
113.539000
0
LINE
8
Layer 1
10
130.648750
20
113.539000
11
130.471000
21
102.481000
0
LINE
8
Layer 1
10
130.471000
20
102.481000
11
128.769047
21
106.636064
0
LINE
8
Layer 1
10
128.769047
20
106.636064
11
126.966500
21
110.607016
0
LINE
8
Layer 1
10
126.966500
20
110.607016
11
124.997453
21
114.379615
0
LINE
8
Layer 1
10
124.997453
20
114.379615
11
122.796000
21
117.939625
0
LINE
8
Layer 1
10
122.796000
20
117.939625
11
120.296234
21
121.272807
0
LINE
8
Layer 1
10
120.296234
20
121.272807
11
117.432250
21
124.364922
0
LINE
8
Layer 1
10
117.432250
20
124.364922
11
114.138141
21
127.201732
0
LINE
8
Layer 1
10
114.138141
20
127.201732
11
110.348000
21
129.769000
0
LINE
8
Layer 1
10
110.348000
20
129.769000
11
107.616752
21
131.291453
0
LINE
8
Layer 1
10
107.616752
20
131.291453
11
104.807513
21
132.704125
0
LINE
8
Layer 1
10
104.807513
20
132.704125
11
99.168100
21
135.469000
0
LINE
8
Layer 1
10
99.168100
20
135.469000
11
92.059963
21
139.367750
0
LINE
8
Layer 1
10
92.059963
20
139.367750
11
88.624164
21
141.508844
0
LINE
8
Layer 1
10
88.624164
20
141.508844
11
85.295700
21
143.832000
0
LINE
8
Layer 1
10
85.295700
20
143.832000
11
79.090550
21
148.746875
0
LINE
8
Layer 1
10
79.090550
20
148.746875
11
73.105600
21
153.931000
0
LINE
8
Layer 1
10
73.105600
20
153.931000
11
69.651537
21
157.205625
0
LINE
8
Layer 1
10
69.651537
20
157.205625
11
66.540000
21
160.016000
0
LINE
8
Layer 1
10
66.540000
20
160.016000
11
66.759300
21
159.731000
0
LINE
8
Layer 1
10
66.759300
20
159.731000
11
66.812000
21
159.762000
0
LINE
8
Layer 1
10
66.812000
20
159.762000
11
66.821200
21
159.600000
0
LINE
8
Layer 1
10
66.821200
20
159.600000
11
67.170000
21
159.261000
0
LINE
8
Layer 1
10
67.170000
20
159.261000
11
73.726727
21
152.240234
0
LINE
8
Layer 1
10
73.726727
20
152.240234
11
77.082127
21
148.977322
0
LINE
8
Layer 1
10
77.082127
20
148.977322
11
80.530362
21
145.868875
0
LINE
8
Layer 1
10
80.530362
20
145.868875
11
84.102540
21
142.907006
0
LINE
8
Layer 1
10
84.102540
20
142.907006
11
87.829767
21
140.083828
0
LINE
8
Layer 1
10
87.829767
20
140.083828
11
91.743151
21
137.391455
0
LINE
8
Layer 1
10
91.743151
20
137.391455
11
95.873800
21
134.822000
0
LINE
8
Layer 1
10
95.873800
20
134.822000
11
101.061900
21
131.997734
0
LINE
8
Layer 1
10
101.061900
20
131.997734
11
106.234850
21
129.299375
0
LINE
8
Layer 1
10
106.234850
20
129.299375
11
108.758433
21
127.860037
0
LINE
8
Layer 1
10
108.758433
20
127.860037
11
111.209575
21
126.287328
0
LINE
8
Layer 1
10
111.209575
20
126.287328
11
113.565392
21
124.526299
0
LINE
8
Layer 1
10
113.565392
20
124.526299
11
115.803000
21
122.522000
0
LINE
8
Layer 1
10
115.803000
20
122.522000
11
117.806568
21
120.390062
0
LINE
8
Layer 1
10
117.806568
20
120.390062
11
119.628859
21
118.152187
0
LINE
8
Layer 1
10
119.628859
20
118.152187
11
121.290627
21
115.818406
0
LINE
8
Layer 1
10
121.290627
20
115.818406
11
122.812625
21
113.398750
0
LINE
8
Layer 1
10
122.812625
20
113.398750
11
125.520328
21
108.341938
0
LINE
8
Layer 1
10
125.520328
20
108.341938
11
127.918000
21
103.062000
0
LINE
8
Layer 1
10
127.918000
20
103.062000
11
129.193875
21
100.086613
0
LINE
8
Layer 1
10
129.193875
20
100.086613
11
129.738672
21
98.544127
0
LINE
8
Layer 1
10
129.738672
20
98.544127
11
130.100000
21
97.003000
0
LINE
8
Layer 1
10
130.100000
20
97.003000
11
130.289172
21
94.927852
0
LINE
8
Layer 1
10
130.289172
20
94.927852
11
130.315875
21
92.660188
0
LINE
8
Layer 1
10
130.315875
20
92.660188
11
130.246000
21
88.234200
0
LINE
8
Layer 1
10
130.246000
20
88.234200
11
130.465000
21
71.536100
0
LINE
8
Layer 1
10
130.465000
20
71.536100
11
128.738625
21
74.591688
0
LINE
8
Layer 1
10
128.738625
20
74.591688
11
126.914000
21
77.591100
0
LINE
8
Layer 1
10
126.914000
20
77.591100
11
124.417654
21
81.483270
0
LINE
8
Layer 1
10
124.417654
20
81.483270
11
121.811797
21
85.073928
0
LINE
8
Layer 1
10
121.811797
20
85.073928
11
119.050197
21
88.370572
0
LINE
8
Layer 1
10
119.050197
20
88.370572
11
116.086625
21
91.380700
0
LINE
8
Layer 1
10
116.086625
20
91.380700
11
112.874850
21
94.111809
0
LINE
8
Layer 1
10
112.874850
20
94.111809
11
109.368641
21
96.571397
0
LINE
8
Layer 1
10
109.368641
20
96.571397
11
105.521768
21
98.766961
0
LINE
8
Layer 1
10
105.521768
20
98.766961
11
101.288000
21
100.706000
0
LINE
8
Layer 1
10
101.288000
20
100.706000
11
96.777605
21
102.397656
0
LINE
8
Layer 1
10
96.777605
20
102.397656
11
92.186763
21
103.903500
0
LINE
8
Layer 1
10
92.186763
20
103.903500
11
82.962900
21
106.759000
0
LINE
8
Layer 1
10
82.962900
20
106.759000
11
76.219700
21
109.061000
0
LINE
8
Layer 1
10
76.219700
20
109.061000
11
69.585600
21
111.660000
0
LINE
8
Layer 1
10
69.585600
20
111.660000
11
63.073100
21
114.551000
0
LINE
8
Layer 1
10
63.073100
20
114.551000
11
56.695400
21
117.728000
0
LINE
8
Layer 1
10
56.695400
20
117.728000
11
56.739300
21
117.947000
0
LINE
8
Layer 1
10
56.739300
20
117.947000
11
56.757800
21
117.585000
0
LINE
8
Layer 1
10
56.757800
20
117.585000
11
56.365200
21
117.853000
0
LINE
8
Layer 1
10
56.365200
20
117.853000
11
56.559400
21
117.796000
0
LINE
8
Layer 1
10
56.559400
20
117.796000
11
56.366500
21
117.861000
0
LINE
8
Layer 1
10
56.366500
20
117.861000
11
56.580800
21
117.922000
0
LINE
8
Layer 1
10
56.580800
20
117.922000
11
56.483700
21
117.928000
0
LINE
8
Layer 1
10
56.483700
20
117.928000
11
57.038067
21
117.292719
0
LINE
8
Layer 1
10
57.038067
20
117.292719
11
57.984863
21
116.658000
0
LINE
8
Layer 1
10
57.984863
20
116.658000
11
59.841300
21
115.637000
0
LINE
8
Layer 1
10
59.841300
20
115.637000
11
65.590358
21
112.433141
0
LINE
8
Layer 1
10
65.590358
20
112.433141
11
71.546163
21
109.539125
0
LINE
8
Layer 1
10
71.546163
20
109.539125
11
77.639686
21
106.940047
0
LINE
8
Layer 1
10
77.639686
20
106.940047
11
83.801900
21
104.621000
0
LINE
8
Layer 1
10
83.801900
20
104.621000
11
92.038025
21
101.862925
0
LINE
8
Layer 1
10
92.038025
20
101.862925
11
96.137891
21
100.431809
0
LINE
8
Layer 1
10
96.137891
20
100.431809
11
100.172000
21
98.828400
0
LINE
8
Layer 1
10
100.172000
20
98.828400
11
102.799000
21
97.599325
0
LINE
8
Layer 1
10
102.799000
20
97.599325
11
105.356000
21
96.231500
0
LINE
8
Layer 1
10
105.356000
20
96.231500
11
107.836000
21
94.729225
0
LINE
8
Layer 1
10
107.836000
20
94.729225
11
110.232000
21
93.096400
0
LINE
8
Layer 1
10
110.232000
20
93.096400
11
112.945533
21
90.945396
0
LINE
8
Layer 1
10
112.945533
20
90.945396
11
115.440453
21
88.640992
0
LINE
8
Layer 1
10
115.440453
20
88.640992
11
117.747615
21
86.197677
0
LINE
8
Layer 1
10
117.747615
20
86.197677
11
119.897875
21
83.629937
0
LINE
8
Layer 1
10
119.897875
20
83.629937
11
123.851109
21
78.179139
0
LINE
8
Layer 1
10
123.851109
20
78.179139
11
127.547000
21
72.404500
0
LINE
8
Layer 1
10
127.547000
20
72.404500
11
129.232375
21
69.890237
0
LINE
8
Layer 1
10
129.232375
20
69.890237
11
130.004703
21
68.541461
0
LINE
8
Layer 1
10
130.004703
20
68.541461
11
130.488000
21
67.200400
0
LINE
8
Layer 1
10
130.488000
20
67.200400
11
130.761125
21
64.469750
0
LINE
8
Layer 1
10
130.761125
20
64.469750
11
130.849000
21
61.701000
0
LINE
8
Layer 1
10
130.849000
20
61.701000
11
131.329625
21
53.619737
0
LINE
8
Layer 1
10
131.329625
20
53.619737
11
131.660266
21
49.581727
0
LINE
8
Layer 1
10
131.660266
20
49.581727
11
132.162000
21
45.576500
0
LINE
8
Layer 1
10
132.162000
20
45.576500
11
129.915875
21
48.726788
0
LINE
8
Layer 1
10
129.915875
20
48.726788
11
127.489000
21
51.740500
0
LINE
8
Layer 1
10
127.489000
20
51.740500
11
125.580801
21
53.868175
0
LINE
8
Layer 1
10
125.580801
20
53.868175
11
123.428781
21
55.997159
0
LINE
8
Layer 1
10
123.428781
20
55.997159
11
121.070559
21
58.049321
0
LINE
8
Layer 1
10
121.070559
20
58.049321
11
118.543750
21
59.946525
0
LINE
8
Layer 1
10
118.543750
20
59.946525
11
115.885973
21
61.610639
0
LINE
8
Layer 1
10
115.885973
20
61.610639
11
113.134844
21
62.963528
0
LINE
8
Layer 1
10
113.134844
20
62.963528
11
110.327980
21
63.927060
0
LINE
8
Layer 1
10
110.327980
20
63.927060
11
107.503000
21
64.423100
0
LINE
8
Layer 1
10
107.503000
20
64.423100
11
110.834406
21
63.254362
0
LINE
8
Layer 1
10
110.834406
20
63.254362
11
113.943250
21
61.739200
0
LINE
8
Layer 1
10
113.943250
20
61.739200
11
116.855969
21
59.870787
0
LINE
8
Layer 1
10
116.855969
20
59.870787
11
119.599000
21
57.642300
0
LINE
8
Layer 1
10
119.599000
20
57.642300
11
122.724078
21
54.409642
0
LINE
8
Layer 1
10
122.724078
20
54.409642
11
126.793125
21
49.650087
0
LINE
8
Layer 1
10
126.793125
20
49.650087
11
130.493359
21
44.763989
0
LINE
8
Layer 1
10
130.493359
20
44.763989
11
131.794928
21
42.711096
0
LINE
8
Layer 1
10
131.794928
20
42.711096
11
132.512000
21
41.151700
0
LINE
8
Layer 1
10
132.512000
20
41.151700
11
132.860328
21
39.297822
0
LINE
8
Layer 1
10
132.860328
20
39.297822
11
133.065125
21
36.987325
0
LINE
8
Layer 1
10
133.065125
20
36.987325
11
133.268000
21
32.659900
0
LINE
8
Layer 1
10
133.268000
20
32.659900
11
131.949750
21
34.603325
0
LINE
8
Layer 1
10
131.949750
20
34.603325
11
130.477000
21
36.434700
0
LINE
8
Layer 1
10
130.477000
20
36.434700
11
128.559068
21
38.331209
0
LINE
8
Layer 1
10
128.559068
20
38.331209
11
126.453672
21
40.044303
0
LINE
8
Layer 1
10
126.453672
20
40.044303
11
124.192908
21
41.583871
0
LINE
8
Layer 1
10
124.192908
20
41.583871
11
121.808875
21
42.959800
0
LINE
8
Layer 1
10
121.808875
20
42.959800
11
119.333670
21
44.181979
0
LINE
8
Layer 1
10
119.333670
20
44.181979
11
116.799391
21
45.260297
0
LINE
8
Layer 1
10
116.799391
20
45.260297
11
111.682000
21
47.024900
0
LINE
8
Layer 1
10
111.682000
20
47.024900
11
107.302875
21
48.222375
0
LINE
8
Layer 1
10
107.302875
20
48.222375
11
102.950000
21
49.515700
0
LINE
8
Layer 1
10
102.950000
20
49.515700
11
100.108375
21
50.585106
0
LINE
8
Layer 1
10
100.108375
20
50.585106
11
96.974625
21
52.069000
0
LINE
8
Layer 1
10
96.974625
20
52.069000
11
95.494504
21
52.968243
0
LINE
8
Layer 1
10
95.494504
20
52.968243
11
94.176912
21
53.973344
0
LINE
8
Layer 1
10
94.176912
20
53.973344
11
93.100371
21
55.085048
0
LINE
8
Layer 1
10
93.100371
20
55.085048
11
92.343400
21
56.304100
0
LINE
8
Layer 1
10
92.343400
20
56.304100
11
92.124063
21
57.176075
0
LINE
8
Layer 1
10
92.124063
20
57.176075
11
92.291800
21
58.054800
0
LINE
8
Layer 1
10
92.291800
20
58.054800
11
92.800418
21
58.813125
0
LINE
8
Layer 1
10
92.800418
20
58.813125
11
93.557581
21
59.477441
0
LINE
8
Layer 1
10
93.557581
20
59.477441
11
95.551500
21
60.566125
0
LINE
8
Layer 1
10
95.551500
20
60.566125
11
99.595400
21
62.078300
0
LINE
8
Layer 1
10
99.595400
20
62.078300
11
100.937800
21
62.795400
0
LINE
8
Layer 1
10
100.937800
20
62.795400
11
101.524100
21
63.316559
0
LINE
8
Layer 1
10
101.524100
20
63.316559
11
101.880000
21
63.939100
0
LINE
8
Layer 1
10
101.880000
20
63.939100
11
101.891000
21
64.559638
0
LINE
8
Layer 1
10
101.891000
20
64.559638
11
101.644000
21
65.132700
0
LINE
8
Layer 1
10
101.644000
20
65.132700
11
100.872352
21
66.014343
0
LINE
8
Layer 1
10
100.872352
20
66.014343
11
99.816163
21
66.740747
0
LINE
8
Layer 1
10
99.816163
20
66.740747
11
98.552317
21
67.333253
0
LINE
8
Layer 1
10
98.552317
20
67.333253
11
97.157700
21
67.813200
0
LINE
8
Layer 1
10
97.157700
20
67.813200
11
94.283687
21
68.520778
0
LINE
8
Layer 1
10
94.283687
20
68.520778
11
91.809200
21
69.034200
0
LINE
8
Layer 1
10
91.809200
20
69.034200
11
85.564866
21
70.633477
0
LINE
8
Layer 1
10
85.564866
20
70.633477
11
81.930916
21
71.754392
0
LINE
8
Layer 1
10
81.930916
20
71.754392
11
78.233200
21
73.093238
0
LINE
8
Layer 1
10
78.233200
20
73.093238
11
74.679784
21
74.652822
0
LINE
8
Layer 1
10
74.679784
20
74.652822
11
71.478734
21
76.435955
0
LINE
8
Layer 1
10
71.478734
20
76.435955
11
70.075368
21
77.412229
0
LINE
8
Layer 1
10
70.075368
20
77.412229
11
68.838118
21
78.445444
0
LINE
8
Layer 1
10
68.838118
20
78.445444
11
67.792992
21
79.535951
0
LINE
8
Layer 1
10
67.792992
20
79.535951
11
66.966000
21
80.684100
0
LINE
8
Layer 1
10
66.966000
20
80.684100
11
66.347387
21
82.088325
0
LINE
8
Layer 1
10
66.347387
20
82.088325
11
66.240811
21
82.840191
0
LINE
8
Layer 1
10
66.240811
20
82.840191
11
66.336200
21
83.606100
0
LINE
8
Layer 1
10
66.336200
20
83.606100
11
66.937160
21
84.787863
0
LINE
8
Layer 1
10
66.937160
20
84.787863
11
67.926192
21
85.693945
0
LINE
8
Layer 1
10
67.926192
20
85.693945
11
69.196725
21
86.383927
0
LINE
8
Layer 1
10
69.196725
20
86.383927
11
70.642188
21
86.917388
0
LINE
8
Layer 1
10
70.642188
20
86.917388
11
73.631614
21
87.753061
0
LINE
8
Layer 1
10
73.631614
20
87.753061
11
74.962435
21
88.174433
0
LINE
8
Layer 1
10
74.962435
20
88.174433
11
76.041900
21
88.677600
0
LINE
8
Layer 1
10
76.041900
20
88.677600
11
76.835750
21
89.406188
0
LINE
8
Layer 1
10
76.835750
20
89.406188
11
77.278300
21
90.388200
0
LINE
8
Layer 1
10
77.278300
20
90.388200
11
77.290052
21
91.396497
0
LINE
8
Layer 1
10
77.290052
20
91.396497
11
76.892238
21
92.173175
0
LINE
8
Layer 1
10
76.892238
20
92.173175
11
76.193280
21
92.757591
0
LINE
8
Layer 1
10
76.193280
20
92.757591
11
75.301600
21
93.189100
0
LINE
8
Layer 1
10
75.301600
20
93.189100
11
71.458162
21
94.376212
0
LINE
8
Layer 1
10
71.458162
20
94.376212
11
67.574000
21
95.484800
0
LINE
8
Layer 1
10
67.574000
20
95.484800
11
64.103765
21
96.742097
0
LINE
8
Layer 1
10
64.103765
20
96.742097
11
60.603486
21
98.209825
0
LINE
8
Layer 1
10
60.603486
20
98.209825
11
57.144942
21
99.902141
0
LINE
8
Layer 1
10
57.144942
20
99.902141
11
53.799913
21
101.833200
0
LINE
8
Layer 1
10
53.799913
20
101.833200
11
50.640175
21
104.017159
0
LINE
8
Layer 1
10
50.640175
20
104.017159
11
47.737508
21
106.468175
0
LINE
8
Layer 1
10
47.737508
20
106.468175
11
45.163690
21
109.200403
0
LINE
8
Layer 1
10
45.163690
20
109.200403
11
42.990500
21
112.228000
0
LINE
8
Layer 1
10
42.990500
20
112.228000
11
41.745695
21
114.447844
0
LINE
8
Layer 1
10
41.745695
20
114.447844
11
40.687687
21
116.941250
0
LINE
8
Layer 1
10
40.687687
20
116.941250
11
40.318360
21
118.238215
0
LINE
8
Layer 1
10
40.318360
20
118.238215
11
40.103286
21
119.540781
0
LINE
8
Layer 1
10
40.103286
20
119.540781
11
40.078315
21
120.828020
0
LINE
8
Layer 1
10
40.078315
20
120.828020
11
40.279300
21
122.079000
0
LINE
8
Layer 1
10
40.279300
20
122.079000
11
40.688702
21
123.171580
0
LINE
8
Layer 1
10
40.688702
20
123.171580
11
41.288214
21
124.142904
0
LINE
8
Layer 1
10
41.288214
20
124.142904
11
42.056338
21
124.998913
0
LINE
8
Layer 1
10
42.056338
20
124.998913
11
42.971575
21
125.745547
0
LINE
8
Layer 1
10
42.971575
20
125.745547
11
45.157398
21
126.934447
0
LINE
8
Layer 1
10
45.157398
20
126.934447
11
47.673700
21
127.757125
0
LINE
8
Layer 1
10
47.673700
20
127.757125
11
50.348495
21
128.261100
0
LINE
8
Layer 1
10
50.348495
20
128.261100
11
53.009800
21
128.493891
0
LINE
8
Layer 1
10
53.009800
20
128.493891
11
55.485630
21
128.503018
0
LINE
8
Layer 1
10
55.485630
20
128.503018
11
57.604000
21
128.336000
0
LINE
8
Layer 1
10
57.604000
20
128.336000
11
59.952273
21
127.913875
0
LINE
8
Layer 1
10
59.952273
20
127.913875
11
62.285763
21
127.356750
0
LINE
8
Layer 1
10
62.285763
20
127.356750
11
64.616870
21
126.828500
0
LINE
8
Layer 1
10
64.616870
20
126.828500
11
66.958000
21
126.493000
0
LINE
8
Layer 1
10
66.958000
20
126.493000
11
68.721688
21
126.548000
0
LINE
8
Layer 1
10
68.721688
20
126.548000
11
69.570039
21
126.762156
0
LINE
8
Layer 1
10
69.570039
20
126.762156
11
70.376400
21
127.137000
0
LINE
8
Layer 1
10
70.376400
20
127.137000
11
71.404138
21
128.041375
0
LINE
8
Layer 1
10
71.404138
20
128.041375
11
71.996500
21
129.272000
0
LINE
8
Layer 1
10
71.996500
20
129.272000
11
72.053248
21
130.346563
0
LINE
8
Layer 1
10
72.053248
20
130.346563
11
71.790188
21
131.441750
0
LINE
8
Layer 1
10
71.790188
20
131.441750
11
71.305033
21
132.476562
0
LINE
8
Layer 1
10
71.305033
20
132.476562
11
70.695500
21
133.370000
0
LINE
8
Layer 1
10
70.695500
20
133.370000
11
69.274164
21
134.874234
0
LINE
8
Layer 1
10
69.274164
20
134.874234
11
67.635713
21
136.263625
0
LINE
8
Layer 1
10
67.635713
20
136.263625
11
64.264300
21
138.858000
0
LINE
8
Layer 1
10
64.264300
20
138.858000
11
60.723272
21
141.877266
0
LINE
8
Layer 1
10
60.723272
20
141.877266
11
57.384650
21
145.112625
0
LINE
8
Layer 1
10
57.384650
20
145.112625
11
54.322703
21
148.603172
0
LINE
8
Layer 1
10
54.322703
20
148.603172
11
51.611700
21
152.388000
0
LINE
8
Layer 1
10
51.611700
20
152.388000
11
49.675036
21
155.536656
0
LINE
8
Layer 1
10
49.675036
20
155.536656
11
47.896763
21
159.058250
0
LINE
8
Layer 1
10
47.896763
20
159.058250
11
47.229383
21
160.895910
0
LINE
8
Layer 1
10
47.229383
20
160.895910
11
46.796433
21
162.751219
0
LINE
8
Layer 1
10
46.796433
20
162.751219
11
46.662857
21
164.598980
0
LINE
8
Layer 1
10
46.662857
20
164.598980
11
46.893600
21
166.414000
0
LINE
8
Layer 1
10
46.893600
20
166.414000
11
47.413839
21
167.800687
0
LINE
8
Layer 1
10
47.413839
20
167.800687
11
48.225012
21
169.025000
0
LINE
8
Layer 1
10
48.225012
20
169.025000
11
49.267955
21
170.068563
0
LINE
8
Layer 1
10
49.267955
20
170.068563
11
50.483500
21
170.913000
0
LINE
8
Layer 1
10
50.483500
20
170.913000
11
51.653921
21
171.479944
0
LINE
8
Layer 1
10
51.653921
20
171.479944
11
52.921388
21
171.900627
0
LINE
8
Layer 1
10
52.921388
20
171.900627
11
55.692202
21
172.348828
0
LINE
8
Layer 1
10
55.692202
20
172.348828
11
58.685430
21
172.348834
0
LINE
8
Layer 1
10
58.685430
20
172.348834
11
61.790562
21
171.991875
0
LINE
8
Layer 1
10
61.790562
20
171.991875
11
64.897087
21
171.369182
0
LINE
8
Layer 1
10
64.897087
20
171.369182
11
67.894492
21
170.571984
0
LINE
8
Layer 1
10
67.894492
20
170.571984
11
73.119900
21
168.819000
0
LINE
8
Layer 1
10
73.119900
20
168.819000
11
76.345575
21
167.494500
0
LINE
8
Layer 1
10
76.345575
20
167.494500
11
79.619100
21
166.329000
0
LINE
8
Layer 1
10
79.619100
20
166.329000
11
80.638427
21
166.127906
0
LINE
8
Layer 1
10
80.638427
20
166.127906
11
81.684688
21
166.083750
0
LINE
8
Layer 1
10
81.684688
20
166.083750
11
82.709855
21
166.243219
0
LINE
8
Layer 1
10
82.709855
20
166.243219
11
83.665900
21
166.653000
0
LINE
8
Layer 1
10
83.665900
20
166.653000
11
84.215586
21
167.089187
0
LINE
8
Layer 1
10
84.215586
20
167.089187
11
84.627263
21
167.623250
0
LINE
8
Layer 1
10
84.627263
20
167.623250
11
85.115600
21
168.910000
0
LINE
8
Layer 1
10
85.115600
20
168.910000
11
85.235662
21
170.504443
0
LINE
8
Layer 1
10
85.235662
20
170.504443
11
84.967503
21
172.142422
0
LINE
8
Layer 1
10
84.967503
20
172.142422
11
84.392468
21
173.794908
0
LINE
8
Layer 1
10
84.392468
20
173.794908
11
83.591900
21
175.432875
0
LINE
8
Layer 1
10
83.591900
20
175.432875
11
81.639547
21
178.549141
0
LINE
8
Layer 1
10
81.639547
20
178.549141
11
79.761200
21
181.259000
0
LINE
8
Layer 1
10
79.761200
20
181.259000
11
77.113658
21
185.594109
0
LINE
8
Layer 1
10
77.113658
20
185.594109
11
75.994276
21
187.782541
0
LINE
8
Layer 1
10
75.994276
20
187.782541
11
75.020563
21
190.010875
0
LINE
8
Layer 1
10
75.020563
20
190.010875
11
74.199572
21
192.298600
0
LINE
8
Layer 1
10
74.199572
20
192.298600
11
73.538361
21
194.665203
0
LINE
8
Layer 1
10
73.538361
20
194.665203
11
73.043985
21
197.130174
0
LINE
8
Layer 1
10
73.043985
20
197.130174
11
72.723500
21
199.713000
0
LINE
8
Layer 1
10
72.723500
20
199.713000
11
72.576388
21
202.346625
0
LINE
8
Layer 1
10
72.576388
20
202.346625
11
72.621842
21
203.676516
0
LINE
8
Layer 1
10
72.621842
20
203.676516
11
72.802100
21
204.969000
0
LINE
8
Layer 1
10
72.802100
20
204.969000
11
73.246695
21
206.536141
0
LINE
8
Layer 1
10
73.246695
20
206.536141
11
73.941237
21
208.033625
0
LINE
8
Layer 1
10
73.941237
20
208.033625
11
74.901561
21
209.360297
0
LINE
8
Layer 1
10
74.901561
20
209.360297
11
76.143500
21
210.415000
0
LINE
8
Layer 1
10
76.143500
20
210.415000
11
77.767203
21
211.110918
0
LINE
8
Layer 1
10
77.767203
20
211.110918
11
79.609981
21
211.354656
0
LINE
8
Layer 1
10
79.609981
20
211.354656
11
81.593000
21
211.226441
0
LINE
8
Layer 1
10
81.593000
20
211.226441
11
83.637425
21
210.806500
0
LINE
8
Layer 1
10
83.637425
20
210.806500
11
85.664422
21
210.175059
0
LINE
8
Layer 1
10
85.664422
20
210.175059
11
87.595156
21
209.412344
0
LINE
8
Layer 1
10
87.595156
20
209.412344
11
90.852500
21
207.814000
0
LINE
8
Layer 1
10
90.852500
20
207.814000
11
94.767212
21
205.455750
0
LINE
8
Layer 1
10
94.767212
20
205.455750
11
96.809698
21
204.388094
0
LINE
8
Layer 1
10
96.809698
20
204.388094
11
98.908500
21
203.669000
0
LINE
8
Layer 1
10
98.908500
20
203.669000
11
100.429137
21
203.563875
0
LINE
8
Layer 1
10
100.429137
20
203.563875
11
101.142005
21
203.742547
0
LINE
8
Layer 1
10
101.142005
20
203.742547
11
101.836000
21
204.112000
0
LINE
8
Layer 1
10
101.836000
20
204.112000
11
102.728230
21
205.060006
0
LINE
8
Layer 1
10
102.728230
20
205.060006
11
103.162094
21
206.264172
0
LINE
8
Layer 1
10
103.162094
20
206.264172
11
103.227098
21
207.646346
0
LINE
8
Layer 1
10
103.227098
20
207.646346
11
103.012750
21
209.128375
0
LINE
8
Layer 1
10
103.012750
20
209.128375
11
102.104031
21
212.079391
0
LINE
8
Layer 1
10
102.104031
20
212.079391
11
101.152000
21
214.492000
0
LINE
8
Layer 1
10
101.152000
20
214.492000
11
100.356288
21
216.689250
0
LINE
8
Layer 1
10
100.356288
20
216.689250
11
99.685300
21
218.927000
0
LINE
8
Layer 1
10
99.685300
20
218.927000
11
99.023794
21
222.020422
0
LINE
8
Layer 1
10
99.023794
20
222.020422
11
98.619500
21
225.264875
0
LINE
8
Layer 1
10
98.619500
20
225.264875
11
98.563506
21
228.521141
0
LINE
8
Layer 1
10
98.563506
20
228.521141
11
98.946900
21
231.650000
0
LINE
8
Layer 1
10
98.946900
20
231.650000
11
99.380298
21
233.246000
0
LINE
8
Layer 1
10
99.380298
20
233.246000
11
100.047012
21
234.803750
0
LINE
8
Layer 1
10
100.047012
20
234.803750
11
100.985695
21
236.189375
0
LINE
8
Layer 1
10
100.985695
20
236.189375
11
102.235000
21
237.269000
0
LINE
8
Layer 1
10
102.235000
20
237.269000
11
103.451984
21
237.887516
0
LINE
8
Layer 1
10
103.451984
20
237.887516
11
104.727375
21
238.262375
0
LINE
8
Layer 1
10
104.727375
20
238.262375
11
106.050578
21
238.382047
0
LINE
8
Layer 1
10
106.050578
20
238.382047
11
107.411000
21
238.235000
0
LINE
8
Layer 1
10
107.411000
20
238.235000
11
109.456701
21
237.551689
0
LINE
8
Layer 1
10
109.456701
20
237.551689
11
111.288359
21
236.486078
0
LINE
8
Layer 1
10
111.288359
20
236.486078
11
112.951432
21
235.170271
0
LINE
8
Layer 1
10
112.951432
20
235.170271
11
114.491375
21
233.736375
0
LINE
8
Layer 1
10
114.491375
20
233.736375
11
117.383703
21
231.042734
0
LINE
8
Layer 1
10
117.383703
20
231.042734
11
118.827002
21
230.047201
0
LINE
8
Layer 1
10
118.827002
20
230.047201
11
120.329000
21
229.462000
0
LINE
8
Layer 1
10
120.329000
20
229.462000
11
121.401750
21
229.406375
0
LINE
8
Layer 1
10
121.401750
20
229.406375
11
122.401000
21
229.782000
0
LINE
8
Layer 1
10
122.401000
20
229.782000
11
122.866492
21
230.282566
0
LINE
8
Layer 1
10
122.866492
20
230.282566
11
123.176687
21
230.986031
0
LINE
8
Layer 1
10
123.176687
20
230.986031
11
123.451000
21
232.770750
0
LINE
8
Layer 1
10
123.451000
20
232.770750
11
123.454000
21
236.235000
0
LINE
8
Layer 1
10
123.454000
20
236.235000
11
123.885000
21
240.191000
0
LINE
8
Layer 1
10
123.885000
20
240.191000
11
124.512125
21
242.695375
0
LINE
8
Layer 1
10
124.512125
20
242.695375
11
125.437000
21
245.109000
0
LINE
8
Layer 1
10
125.437000
20
245.109000
11
126.837418
21
247.892346
0
LINE
8
Layer 1
10
126.837418
20
247.892346
11
128.508281
21
250.458391
0
LINE
8
Layer 1
10
128.508281
20
250.458391
11
130.411504
21
252.833021
0
LINE
8
Layer 1
10
130.411504
20
252.833021
11
132.509000
21
255.042125
0
LINE
8
Layer 1
10
132.509000
20
255.042125
11
134.762684
21
257.111588
0
LINE
8
Layer 1
10
134.762684
20
257.111588
11
137.134469
21
259.067297
0
LINE
8
Layer 1
10
137.134469
20
259.067297
11
142.080000
21
262.741000
0
LINE
8
Layer 1
10
142.080000
20
262.741000
11
142.080000
21
262.741000
 0 
ENDSEC
 0 
EOF