999
"DXF R12 Output" (www.mydxf.blogspot.com)
 0 
SECTION
 2 
HEADER
 9 
$ACADVER
 1 
AC1009
 9 
$EXTMIN
 10 
 0 
 20 
 0 
 9 
$EXTMAX
 10 
 8.5 
 20 
 11 
 0 
ENDSEC
 0 
SECTION
 2 
ENTITIES
0
LINE
8
Layer 1
10
0.000000
20
270.933000
11
270.933000
21
270.933000
0
LINE
8
Layer 1
10
270.933000
20
270.933000
11
270.933000
21
0.000008
0
LINE
8
Layer 1
10
270.933000
20
0.000008
11
0.000000
21
0.000008
0
LINE
8
Layer 1
10
0.000000
20
0.000008
11
0.000000
21
270.933000
0
LINE
8
Layer 1
10
0.000000
20
270.933000
11
0.000000
21
270.933000
0
LINE
8
Layer 1
10
135.000000
20
263.242000
11
135.998875
21
263.141625
0
LINE
8
Layer 1
10
135.998875
20
263.141625
11
136.946000
21
262.808000
0
LINE
8
Layer 1
10
136.946000
20
262.808000
11
138.770250
21
261.622375
0
LINE
8
Layer 1
10
138.770250
20
261.622375
11
140.461000
21
260.241000
0
LINE
8
Layer 1
10
140.461000
20
260.241000
11
142.738068
21
258.222389
0
LINE
8
Layer 1
10
142.738068
20
258.222389
11
144.741234
21
256.122109
0
LINE
8
Layer 1
10
144.741234
20
256.122109
11
146.499314
21
253.927869
0
LINE
8
Layer 1
10
146.499314
20
253.927869
11
148.041125
21
251.627375
0
LINE
8
Layer 1
10
148.041125
20
251.627375
11
149.395482
21
249.208334
0
LINE
8
Layer 1
10
149.395482
20
249.208334
11
150.591203
21
246.658453
0
LINE
8
Layer 1
10
150.591203
20
246.658453
11
151.657104
21
243.965439
0
LINE
8
Layer 1
10
151.657104
20
243.965439
11
152.622000
21
241.117000
0
LINE
8
Layer 1
10
152.622000
20
241.117000
11
154.007500
21
242.175625
0
LINE
8
Layer 1
10
154.007500
20
242.175625
11
155.486000
21
243.097000
0
LINE
8
Layer 1
10
155.486000
20
243.097000
11
157.137297
21
243.800641
0
LINE
8
Layer 1
10
157.137297
20
243.800641
11
158.867625
21
244.188625
0
LINE
8
Layer 1
10
158.867625
20
244.188625
11
160.634141
21
244.223547
0
LINE
8
Layer 1
10
160.634141
20
244.223547
11
162.394000
21
243.868000
0
LINE
8
Layer 1
10
162.394000
20
243.868000
11
163.963922
21
243.160672
0
LINE
8
Layer 1
10
163.963922
20
243.160672
11
165.329375
21
242.149875
0
LINE
8
Layer 1
10
165.329375
20
242.149875
11
166.473391
21
240.886891
0
LINE
8
Layer 1
10
166.473391
20
240.886891
11
167.379000
21
239.423000
0
LINE
8
Layer 1
10
167.379000
20
239.423000
11
168.212273
21
237.303076
0
LINE
8
Layer 1
10
168.212273
20
237.303076
11
168.719250
21
234.988797
0
LINE
8
Layer 1
10
168.719250
20
234.988797
11
168.939164
21
232.543150
0
LINE
8
Layer 1
10
168.939164
20
232.543150
11
168.911250
21
230.029125
0
LINE
8
Layer 1
10
168.911250
20
230.029125
11
168.674742
21
227.509709
0
LINE
8
Layer 1
10
168.674742
20
227.509709
11
168.268875
21
225.047891
0
LINE
8
Layer 1
10
168.268875
20
225.047891
11
167.106000
21
220.549000
0
LINE
8
Layer 1
10
167.106000
20
220.549000
11
168.892500
21
221.503125
0
LINE
8
Layer 1
10
168.892500
20
221.503125
11
170.763000
21
222.275000
0
LINE
8
Layer 1
10
170.763000
20
222.275000
11
172.642953
21
222.724734
0
LINE
8
Layer 1
10
172.642953
20
222.724734
11
174.557125
21
222.819625
0
LINE
8
Layer 1
10
174.557125
20
222.819625
11
176.447484
21
222.536703
0
LINE
8
Layer 1
10
176.447484
20
222.536703
11
178.256000
21
221.853000
0
LINE
8
Layer 1
10
178.256000
20
221.853000
11
179.293402
21
221.237535
0
LINE
8
Layer 1
10
179.293402
20
221.237535
11
180.220719
21
220.514281
0
LINE
8
Layer 1
10
180.220719
20
220.514281
11
181.771250
21
218.791750
0
LINE
8
Layer 1
10
181.771250
20
218.791750
11
182.959906
21
216.780094
0
LINE
8
Layer 1
10
182.959906
20
216.780094
11
183.839000
21
214.574000
0
LINE
8
Layer 1
10
183.839000
20
214.574000
11
184.336232
21
212.742244
0
LINE
8
Layer 1
10
184.336232
20
212.742244
11
184.647869
21
210.894420
0
LINE
8
Layer 1
10
184.647869
20
210.894420
11
184.786951
21
209.035320
0
LINE
8
Layer 1
10
184.786951
20
209.035320
11
184.766516
21
207.169734
0
LINE
8
Layer 1
10
184.766516
20
207.169734
11
184.299248
21
203.438275
0
LINE
8
Layer 1
10
184.299248
20
203.438275
11
183.350375
21
199.738375
0
LINE
8
Layer 1
10
183.350375
20
199.738375
11
182.024205
21
196.108365
0
LINE
8
Layer 1
10
182.024205
20
196.108365
11
180.425047
21
192.586578
0
LINE
8
Layer 1
10
180.425047
20
192.586578
11
178.657209
21
189.211346
0
LINE
8
Layer 1
10
178.657209
20
189.211346
11
176.825000
21
186.021000
0
LINE
8
Layer 1
10
176.825000
20
186.021000
11
174.233125
21
181.814625
0
LINE
8
Layer 1
10
174.233125
20
181.814625
11
171.771000
21
177.528000
0
LINE
8
Layer 1
10
171.771000
20
177.528000
11
173.425516
21
178.447047
0
LINE
8
Layer 1
10
173.425516
20
178.447047
11
175.103375
21
179.235875
0
LINE
8
Layer 1
10
175.103375
20
179.235875
11
176.853047
21
179.822016
0
LINE
8
Layer 1
10
176.853047
20
179.822016
11
178.723000
21
180.133000
0
LINE
8
Layer 1
10
178.723000
20
180.133000
11
180.328688
21
180.115594
0
LINE
8
Layer 1
10
180.328688
20
180.115594
11
181.877750
21
179.805500
0
LINE
8
Layer 1
10
181.877750
20
179.805500
11
183.328188
21
179.189406
0
LINE
8
Layer 1
10
183.328188
20
179.189406
11
184.638000
21
178.254000
0
LINE
8
Layer 1
10
184.638000
20
178.254000
11
185.761406
21
176.959859
0
LINE
8
Layer 1
10
185.761406
20
176.959859
11
186.559500
21
175.448875
0
LINE
8
Layer 1
10
186.559500
20
175.448875
11
187.048594
21
173.801953
0
LINE
8
Layer 1
10
187.048594
20
173.801953
11
187.245000
21
172.100000
0
LINE
8
Layer 1
10
187.245000
20
172.100000
11
187.206292
21
170.832970
0
LINE
8
Layer 1
10
187.206292
20
170.832970
11
187.016941
21
169.547668
0
LINE
8
Layer 1
10
187.016941
20
169.547668
11
186.241969
21
166.946469
0
LINE
8
Layer 1
10
186.241969
20
166.946469
11
185.031387
21
164.344848
0
LINE
8
Layer 1
10
185.031387
20
164.344848
11
183.496500
21
161.791250
0
LINE
8
Layer 1
10
183.496500
20
161.791250
11
181.748613
21
159.334121
0
LINE
8
Layer 1
10
181.748613
20
159.334121
11
179.899031
21
157.021906
0
LINE
8
Layer 1
10
179.899031
20
157.021906
11
176.340000
21
153.026000
0
LINE
8
Layer 1
10
176.340000
20
153.026000
11
178.176942
21
154.099246
0
LINE
8
Layer 1
10
178.176942
20
154.099246
11
179.849143
21
155.373605
0
LINE
8
Layer 1
10
179.849143
20
155.373605
11
181.378917
21
156.822264
0
LINE
8
Layer 1
10
181.378917
20
156.822264
11
182.788578
21
158.418406
0
LINE
8
Layer 1
10
182.788578
20
158.418406
11
185.336818
21
161.945879
0
LINE
8
Layer 1
10
185.336818
20
161.945879
11
187.672375
21
165.741500
0
LINE
8
Layer 1
10
187.672375
20
165.741500
11
189.973760
21
169.590746
0
LINE
8
Layer 1
10
189.973760
20
169.590746
11
192.419484
21
173.279094
0
LINE
8
Layer 1
10
192.419484
20
173.279094
11
193.752259
21
174.995892
0
LINE
8
Layer 1
10
193.752259
20
174.995892
11
195.188061
21
176.592020
0
LINE
8
Layer 1
10
195.188061
20
176.592020
11
196.749203
21
178.040661
0
LINE
8
Layer 1
10
196.749203
20
178.040661
11
198.458000
21
179.315000
0
LINE
8
Layer 1
10
198.458000
20
179.315000
11
199.853375
21
180.114109
0
LINE
8
Layer 1
10
199.853375
20
180.114109
11
201.349250
21
180.693375
0
LINE
8
Layer 1
10
201.349250
20
180.693375
11
202.915250
21
180.960453
0
LINE
8
Layer 1
10
202.915250
20
180.960453
11
204.521000
21
180.823000
0
LINE
8
Layer 1
10
204.521000
20
180.823000
11
206.179797
21
180.171969
0
LINE
8
Layer 1
10
206.179797
20
180.171969
11
207.541125
21
179.137500
0
LINE
8
Layer 1
10
207.541125
20
179.137500
11
208.679141
21
177.833031
0
LINE
8
Layer 1
10
208.679141
20
177.833031
11
209.668000
21
176.372000
0
LINE
8
Layer 1
10
209.668000
20
176.372000
11
211.552875
21
179.833000
0
LINE
8
Layer 1
10
211.552875
20
179.833000
11
212.557703
21
181.509031
0
LINE
8
Layer 1
10
212.557703
20
181.509031
11
213.731000
21
183.132000
0
LINE
8
Layer 1
10
213.731000
20
183.132000
11
215.704453
21
185.277109
0
LINE
8
Layer 1
10
215.704453
20
185.277109
11
218.015875
21
187.156625
0
LINE
8
Layer 1
10
218.015875
20
187.156625
11
219.282182
21
187.929842
0
LINE
8
Layer 1
10
219.282182
20
187.929842
11
220.613609
21
188.556328
0
LINE
8
Layer 1
10
220.613609
20
188.556328
11
222.003701
21
189.009307
0
LINE
8
Layer 1
10
222.003701
20
189.009307
11
223.446000
21
189.262000
0
LINE
8
Layer 1
10
223.446000
20
189.262000
11
224.701687
21
189.271047
0
LINE
8
Layer 1
10
224.701687
20
189.271047
11
225.915750
21
189.045625
0
LINE
8
Layer 1
10
225.915750
20
189.045625
11
227.056688
21
188.580391
0
LINE
8
Layer 1
10
227.056688
20
188.580391
11
228.093000
21
187.870000
0
LINE
8
Layer 1
10
228.093000
20
187.870000
11
228.807967
21
187.156752
0
LINE
8
Layer 1
10
228.807967
20
187.156752
11
229.370672
21
186.390266
0
LINE
8
Layer 1
10
229.370672
20
186.390266
11
230.122125
21
184.720125
0
LINE
8
Layer 1
10
230.122125
20
184.720125
11
230.513016
21
182.904672
0
LINE
8
Layer 1
10
230.513016
20
182.904672
11
230.709000
21
180.989000
0
LINE
8
Layer 1
10
230.709000
20
180.989000
11
231.774000
21
181.487000
0
LINE
8
Layer 1
10
231.774000
20
181.487000
11
233.606000
21
182.218000
0
LINE
8
Layer 1
10
233.606000
20
182.218000
11
235.478000
21
182.835000
0
LINE
8
Layer 1
10
235.478000
20
182.835000
11
237.385000
21
183.337000
0
LINE
8
Layer 1
10
237.385000
20
183.337000
11
239.319000
21
183.721000
0
LINE
8
Layer 1
10
239.319000
20
183.721000
11
241.273000
21
183.986000
0
LINE
8
Layer 1
10
241.273000
20
183.986000
11
243.240000
21
184.131000
0
LINE
8
Layer 1
10
243.240000
20
184.131000
11
245.211000
21
184.156000
0
LINE
8
Layer 1
10
245.211000
20
184.156000
11
247.181000
21
184.060000
0
LINE
8
Layer 1
10
247.181000
20
184.060000
11
248.672875
21
183.960875
0
LINE
8
Layer 1
10
248.672875
20
183.960875
11
250.110000
21
183.624000
0
LINE
8
Layer 1
10
250.110000
20
183.624000
11
250.819750
21
182.989750
0
LINE
8
Layer 1
10
250.819750
20
182.989750
11
251.246000
21
182.123000
0
LINE
8
Layer 1
10
251.246000
20
182.123000
11
251.627641
21
180.844984
0
LINE
8
Layer 1
10
251.627641
20
180.844984
11
251.882625
21
179.495625
0
LINE
8
Layer 1
10
251.882625
20
179.495625
11
252.109000
21
176.794000
0
LINE
8
Layer 1
10
252.109000
20
176.794000
11
252.099791
21
174.611574
0
LINE
8
Layer 1
10
252.099791
20
174.611574
11
251.932953
21
172.504219
0
LINE
8
Layer 1
10
251.932953
20
172.504219
11
251.168625
21
168.455750
0
LINE
8
Layer 1
10
251.168625
20
168.455750
11
249.900484
21
164.530656
0
LINE
8
Layer 1
10
249.900484
20
164.530656
11
248.213000
21
160.611000
0
LINE
8
Layer 1
10
248.213000
20
160.611000
11
250.156000
21
160.074000
0
LINE
8
Layer 1
10
250.156000
20
160.074000
11
251.572422
21
159.430938
0
LINE
8
Layer 1
10
251.572422
20
159.430938
11
252.860125
21
158.574500
0
LINE
8
Layer 1
10
252.860125
20
158.574500
11
253.944016
21
157.487062
0
LINE
8
Layer 1
10
253.944016
20
157.487062
11
254.749000
21
156.151000
0
LINE
8
Layer 1
10
254.749000
20
156.151000
11
254.885000
21
155.815000
0
LINE
8
Layer 1
10
254.885000
20
155.815000
11
255.005000
21
155.474000
0
LINE
8
Layer 1
10
255.005000
20
155.474000
11
255.107000
21
155.127000
0
LINE
8
Layer 1
10
255.107000
20
155.127000
11
255.193000
21
154.776000
0
LINE
8
Layer 1
10
255.193000
20
154.776000
11
255.262000
21
154.421000
0
LINE
8
Layer 1
10
255.262000
20
154.421000
11
255.313000
21
154.063000
0
LINE
8
Layer 1
10
255.313000
20
154.063000
11
255.347000
21
153.703000
0
LINE
8
Layer 1
10
255.347000
20
153.703000
11
255.363000
21
153.342000
0
LINE
8
Layer 1
10
255.363000
20
153.342000
11
255.362000
21
152.980000
0
LINE
8
Layer 1
10
255.362000
20
152.980000
11
255.343000
21
152.619000
0
LINE
8
Layer 1
10
255.343000
20
152.619000
11
255.306000
21
152.259000
0
LINE
8
Layer 1
10
255.306000
20
152.259000
11
255.253000
21
151.902000
0
LINE
8
Layer 1
10
255.253000
20
151.902000
11
255.182000
21
151.547000
0
LINE
8
Layer 1
10
255.182000
20
151.547000
11
255.093000
21
151.196000
0
LINE
8
Layer 1
10
255.093000
20
151.196000
11
254.988000
21
150.850000
0
LINE
8
Layer 1
10
254.988000
20
150.850000
11
254.866000
21
150.510000
0
LINE
8
Layer 1
10
254.866000
20
150.510000
11
254.148541
21
149.095729
0
LINE
8
Layer 1
10
254.148541
20
149.095729
11
253.163953
21
147.740766
0
LINE
8
Layer 1
10
253.163953
20
147.740766
11
251.968545
21
146.460264
0
LINE
8
Layer 1
10
251.968545
20
146.460264
11
250.618625
21
145.269375
0
LINE
8
Layer 1
10
250.618625
20
145.269375
11
247.680484
21
143.217047
0
LINE
8
Layer 1
10
247.680484
20
143.217047
11
244.800000
21
141.705000
0
LINE
8
Layer 1
10
244.800000
20
141.705000
11
246.953875
21
140.543000
0
LINE
8
Layer 1
10
246.953875
20
140.543000
11
247.915828
21
139.816406
0
LINE
8
Layer 1
10
247.915828
20
139.816406
11
248.780000
21
138.925000
0
LINE
8
Layer 1
10
248.780000
20
138.925000
11
249.517641
21
137.804547
0
LINE
8
Layer 1
10
249.517641
20
137.804547
11
249.994375
21
136.585375
0
LINE
8
Layer 1
10
249.994375
20
136.585375
11
250.215922
21
135.292516
0
LINE
8
Layer 1
10
250.215922
20
135.292516
11
250.188000
21
133.951000
0
LINE
8
Layer 1
10
250.188000
20
133.951000
11
249.889650
21
132.491712
0
LINE
8
Layer 1
10
249.889650
20
132.491712
11
249.330824
21
130.986494
0
LINE
8
Layer 1
10
249.330824
20
130.986494
11
248.539422
21
129.448502
0
LINE
8
Layer 1
10
248.539422
20
129.448502
11
247.543344
21
127.890891
0
LINE
8
Layer 1
10
247.543344
20
127.890891
11
245.048754
21
124.769436
0
LINE
8
Layer 1
10
245.048754
20
124.769436
11
242.070250
21
121.727375
0
LINE
8
Layer 1
10
242.070250
20
121.727375
11
238.831027
21
118.869955
0
LINE
8
Layer 1
10
238.831027
20
118.869955
11
235.554281
21
116.302422
0
LINE
8
Layer 1
10
235.554281
20
116.302422
11
232.463207
21
114.130021
0
LINE
8
Layer 1
10
232.463207
20
114.130021
11
229.781000
21
112.458000
0
LINE
8
Layer 1
10
229.781000
20
112.458000
11
224.201000
21
109.405000
0
LINE
8
Layer 1
10
224.201000
20
109.405000
11
220.797250
21
107.720125
0
LINE
8
Layer 1
10
220.797250
20
107.720125
11
219.149750
21
106.792609
0
LINE
8
Layer 1
10
219.149750
20
106.792609
11
217.590000
21
105.700000
0
LINE
8
Layer 1
10
217.590000
20
105.700000
11
217.748000
21
105.716000
0
LINE
8
Layer 1
10
217.748000
20
105.716000
11
219.904687
21
105.755312
0
LINE
8
Layer 1
10
219.904687
20
105.755312
11
221.992000
21
105.432750
0
LINE
8
Layer 1
10
221.992000
20
105.432750
11
223.963062
21
104.704062
0
LINE
8
Layer 1
10
223.963062
20
104.704062
11
225.771000
21
103.525000
0
LINE
8
Layer 1
10
225.771000
20
103.525000
11
227.033891
21
102.222769
0
LINE
8
Layer 1
10
227.033891
20
102.222769
11
227.970625
21
100.715975
0
LINE
8
Layer 1
10
227.970625
20
100.715975
11
228.589547
21
99.047219
0
LINE
8
Layer 1
10
228.589547
20
99.047219
11
228.899000
21
97.259100
0
LINE
8
Layer 1
10
228.899000
20
97.259100
11
228.935104
21
95.847534
0
LINE
8
Layer 1
10
228.935104
20
95.847534
11
228.807578
21
94.454095
0
LINE
8
Layer 1
10
228.807578
20
94.454095
11
228.109125
21
91.755112
0
LINE
8
Layer 1
10
228.109125
20
91.755112
11
226.898609
21
89.229173
0
LINE
8
Layer 1
10
226.898609
20
89.229173
11
225.271000
21
86.943300
0
LINE
8
Layer 1
10
225.271000
20
86.943300
11
223.554781
21
85.099341
0
LINE
8
Layer 1
10
223.554781
20
85.099341
11
221.690250
21
83.422200
0
LINE
8
Layer 1
10
221.690250
20
83.422200
11
217.646000
21
80.437200
0
LINE
8
Layer 1
10
217.646000
20
80.437200
11
214.249643
21
78.326592
0
LINE
8
Layer 1
10
214.249643
20
78.326592
11
210.790016
21
76.481753
0
LINE
8
Layer 1
10
210.790016
20
76.481753
11
207.264412
21
74.876075
0
LINE
8
Layer 1
10
207.264412
20
74.876075
11
203.670125
21
73.482950
0
LINE
8
Layer 1
10
203.670125
20
73.482950
11
200.004447
21
72.275768
0
LINE
8
Layer 1
10
200.004447
20
72.275768
11
196.264672
21
71.227922
0
LINE
8
Layer 1
10
196.264672
20
71.227922
11
188.552000
21
69.503800
0
LINE
8
Layer 1
10
188.552000
20
69.503800
11
183.583625
21
68.593550
0
LINE
8
Layer 1
10
183.583625
20
68.593550
11
178.577000
21
67.940400
0
LINE
8
Layer 1
10
178.577000
20
67.940400
11
180.613000
21
66.704600
0
LINE
8
Layer 1
10
180.613000
20
66.704600
11
181.774563
21
65.790941
0
LINE
8
Layer 1
10
181.774563
20
65.790941
11
182.755750
21
64.728650
0
LINE
8
Layer 1
10
182.755750
20
64.728650
11
183.491312
21
63.495509
0
LINE
8
Layer 1
10
183.491312
20
63.495509
11
183.916000
21
62.069300
0
LINE
8
Layer 1
10
183.916000
20
62.069300
11
183.961883
21
60.466002
0
LINE
8
Layer 1
10
183.961883
20
60.466002
11
183.589877
21
58.997147
0
LINE
8
Layer 1
10
183.589877
20
58.997147
11
182.847186
21
57.655221
0
LINE
8
Layer 1
10
182.847186
20
57.655221
11
181.781016
21
56.432709
0
LINE
8
Layer 1
10
181.781016
20
56.432709
11
180.438570
21
55.322096
0
LINE
8
Layer 1
10
180.438570
20
55.322096
11
178.867053
21
54.315867
0
LINE
8
Layer 1
10
178.867053
20
54.315867
11
175.225625
21
52.586500
0
LINE
8
Layer 1
10
175.225625
20
52.586500
11
171.234369
21
51.184489
0
LINE
8
Layer 1
10
171.234369
20
51.184489
11
167.270922
21
50.049716
0
LINE
8
Layer 1
10
167.270922
20
50.049716
11
160.938000
21
48.341400
0
LINE
8
Layer 1
10
160.938000
20
48.341400
11
158.042344
21
47.335995
0
LINE
8
Layer 1
10
158.042344
20
47.335995
11
155.151000
21
46.168638
0
LINE
8
Layer 1
10
155.151000
20
46.168638
11
152.335406
21
44.835661
0
LINE
8
Layer 1
10
152.335406
20
44.835661
11
149.667000
21
43.333400
0
LINE
8
Layer 1
10
149.667000
20
43.333400
11
148.059150
21
42.236111
0
LINE
8
Layer 1
10
148.059150
20
42.236111
11
146.555141
21
41.012833
0
LINE
8
Layer 1
10
146.555141
20
41.012833
11
143.809375
21
38.267588
0
LINE
8
Layer 1
10
143.809375
20
38.267588
11
141.331172
21
35.256223
0
LINE
8
Layer 1
10
141.331172
20
35.256223
11
139.022000
21
32.137300
0
LINE
8
Layer 1
10
139.022000
20
32.137300
11
139.160875
21
29.403213
0
LINE
8
Layer 1
10
139.160875
20
29.403213
11
139.428000
21
26.671000
0
LINE
8
Layer 1
10
139.428000
20
26.671000
11
140.389000
21
15.775000
0
LINE
8
Layer 1
10
140.389000
20
15.775000
11
140.510172
21
14.200925
0
LINE
8
Layer 1
10
140.510172
20
14.200925
11
140.450125
21
12.712129
0
LINE
8
Layer 1
10
140.450125
20
12.712129
11
140.064016
21
11.294925
0
LINE
8
Layer 1
10
140.064016
20
11.294925
11
139.207000
21
9.935630
0
LINE
8
Layer 1
10
139.207000
20
9.935630
11
138.431281
21
9.192615
0
LINE
8
Layer 1
10
138.431281
20
9.192615
11
137.565000
21
8.661330
0
LINE
8
Layer 1
10
137.565000
20
8.661330
11
136.605719
21
8.321438
0
LINE
8
Layer 1
10
136.605719
20
8.321438
11
135.551000
21
8.152600
0
LINE
8
Layer 1
10
135.551000
20
8.152600
11
135.127000
21
8.171920
0
LINE
8
Layer 1
10
135.127000
20
8.171920
11
134.126375
21
8.327824
0
LINE
8
Layer 1
10
134.126375
20
8.327824
11
133.190250
21
8.670656
0
LINE
8
Layer 1
10
133.190250
20
8.670656
11
132.341500
21
9.194068
0
LINE
8
Layer 1
10
132.341500
20
9.194068
11
131.603000
21
9.891710
0
LINE
8
Layer 1
10
131.603000
20
9.891710
11
130.793500
21
11.136164
0
LINE
8
Layer 1
10
130.793500
20
11.136164
11
130.389000
21
12.559200
0
LINE
8
Layer 1
10
130.389000
20
12.559200
11
130.311109
21
14.795383
0
LINE
8
Layer 1
10
130.311109
20
14.795383
11
130.500875
21
17.266137
0
LINE
8
Layer 1
10
130.500875
20
17.266137
11
131.083000
21
22.054600
0
LINE
8
Layer 1
10
131.083000
20
22.054600
11
132.023000
21
32.930300
0
LINE
8
Layer 1
10
132.023000
20
32.930300
11
128.785746
21
36.785958
0
LINE
8
Layer 1
10
128.785746
20
36.785958
11
125.619344
21
39.956820
0
LINE
8
Layer 1
10
125.619344
20
39.956820
11
122.429457
21
42.553794
0
LINE
8
Layer 1
10
122.429457
20
42.553794
11
119.121750
21
44.687787
0
LINE
8
Layer 1
10
119.121750
20
44.687787
11
115.601887
21
46.469707
0
LINE
8
Layer 1
10
115.601887
20
46.469707
11
111.775531
21
48.010461
0
LINE
8
Layer 1
10
111.775531
20
48.010461
11
107.548348
21
49.420956
0
LINE
8
Layer 1
10
107.548348
20
49.420956
11
102.826000
21
50.812100
0
LINE
8
Layer 1
10
102.826000
20
50.812100
11
97.385287
21
52.345475
0
LINE
8
Layer 1
10
97.385287
20
52.345475
11
94.712120
21
53.273319
0
LINE
8
Layer 1
10
94.712120
20
53.273319
11
92.159600
21
54.444800
0
LINE
8
Layer 1
10
92.159600
20
54.444800
11
90.705988
21
55.325448
0
LINE
8
Layer 1
10
90.705988
20
55.325448
11
89.355425
21
56.412563
0
LINE
8
Layer 1
10
89.355425
20
56.412563
11
88.255400
21
57.721320
0
LINE
8
Layer 1
10
88.255400
20
57.721320
11
87.553400
21
59.266900
0
LINE
8
Layer 1
10
87.553400
20
59.266900
11
87.381662
21
60.252165
0
LINE
8
Layer 1
10
87.381662
20
60.252165
11
87.396427
21
61.210273
0
LINE
8
Layer 1
10
87.396427
20
61.210273
11
87.580075
21
62.132249
0
LINE
8
Layer 1
10
87.580075
20
62.132249
11
87.914988
21
63.009113
0
LINE
8
Layer 1
10
87.914988
20
63.009113
11
88.968130
21
64.591595
0
LINE
8
Layer 1
10
88.968130
20
64.591595
11
90.414900
21
65.885900
0
LINE
8
Layer 1
10
90.414900
20
65.885900
11
91.696450
21
66.671875
0
LINE
8
Layer 1
10
91.696450
20
66.671875
11
92.311622
21
67.126353
0
LINE
8
Layer 1
10
92.311622
20
67.126353
11
92.762300
21
67.667400
0
LINE
8
Layer 1
10
92.762300
20
67.667400
11
92.455777
21
68.029463
0
LINE
8
Layer 1
10
92.455777
20
68.029463
11
91.787467
21
68.327477
0
LINE
8
Layer 1
10
91.787467
20
68.327477
11
89.798888
21
68.758813
0
LINE
8
Layer 1
10
89.798888
20
68.758813
11
86.247700
21
69.154900
0
LINE
8
Layer 1
10
86.247700
20
69.154900
11
80.379450
21
70.023763
0
LINE
8
Layer 1
10
80.379450
20
70.023763
11
74.574800
21
71.239500
0
LINE
8
Layer 1
10
74.574800
20
71.239500
11
70.821530
21
72.280231
0
LINE
8
Layer 1
10
70.821530
20
72.280231
11
67.000173
21
73.554564
0
LINE
8
Layer 1
10
67.000173
20
73.554564
11
63.181083
21
75.066987
0
LINE
8
Layer 1
10
63.181083
20
75.066987
11
59.434613
21
76.821988
0
LINE
8
Layer 1
10
59.434613
20
76.821988
11
55.831115
21
78.824052
0
LINE
8
Layer 1
10
55.831115
20
78.824052
11
52.440945
21
81.077667
0
LINE
8
Layer 1
10
52.440945
20
81.077667
11
49.334456
21
83.587321
0
LINE
8
Layer 1
10
49.334456
20
83.587321
11
46.582000
21
86.357500
0
LINE
8
Layer 1
10
46.582000
20
86.357500
11
44.641763
21
88.862823
0
LINE
8
Layer 1
10
44.641763
20
88.862823
11
43.081550
21
91.644963
0
LINE
8
Layer 1
10
43.081550
20
91.644963
11
42.504797
21
93.122409
0
LINE
8
Layer 1
10
42.504797
20
93.122409
11
42.096063
21
94.648145
0
LINE
8
Layer 1
10
42.096063
20
94.648145
11
41.879684
21
96.215199
0
LINE
8
Layer 1
10
41.879684
20
96.215199
11
41.880000
21
97.816600
0
LINE
8
Layer 1
10
41.880000
20
97.816600
11
42.162203
21
99.535441
0
LINE
8
Layer 1
10
42.162203
20
99.535441
11
42.756500
21
101.202325
0
LINE
8
Layer 1
10
42.756500
20
101.202325
11
43.655447
21
102.718197
0
LINE
8
Layer 1
10
43.655447
20
102.718197
11
44.851600
21
103.984000
0
LINE
8
Layer 1
10
44.851600
20
103.984000
11
45.830024
21
104.634725
0
LINE
8
Layer 1
10
45.830024
20
104.634725
11
46.929602
21
105.105859
0
LINE
8
Layer 1
10
46.929602
20
105.105859
11
49.362662
21
105.609625
0
LINE
8
Layer 1
10
49.362662
20
105.609625
11
51.891667
21
105.695828
0
LINE
8
Layer 1
10
51.891667
20
105.695828
11
54.257500
21
105.565000
0
LINE
8
Layer 1
10
54.257500
20
105.565000
11
49.322875
21
108.038125
0
LINE
8
Layer 1
10
49.322875
20
108.038125
11
44.349400
21
110.452000
0
LINE
8
Layer 1
10
44.349400
20
110.452000
11
41.266872
21
112.159693
0
LINE
8
Layer 1
10
41.266872
20
112.159693
11
38.050433
21
114.129734
0
LINE
8
Layer 1
10
38.050433
20
114.129734
11
34.806987
21
116.338439
0
LINE
8
Layer 1
10
34.806987
20
116.338439
11
31.643438
21
118.762125
0
LINE
8
Layer 1
10
31.643438
20
118.762125
11
28.666690
21
121.377107
0
LINE
8
Layer 1
10
28.666690
20
121.377107
11
25.983648
21
124.159703
0
LINE
8
Layer 1
10
25.983648
20
124.159703
11
23.701217
21
127.086229
0
LINE
8
Layer 1
10
23.701217
20
127.086229
11
21.926300
21
130.133000
0
LINE
8
Layer 1
10
21.926300
20
130.133000
11
21.240212
21
131.829781
0
LINE
8
Layer 1
10
21.240212
20
131.829781
11
20.821125
21
133.603250
0
LINE
8
Layer 1
10
20.821125
20
133.603250
11
20.765300
21
135.407844
0
LINE
8
Layer 1
10
20.765300
20
135.407844
11
21.169000
21
137.198000
0
LINE
8
Layer 1
10
21.169000
20
137.198000
11
22.033255
21
138.792906
0
LINE
8
Layer 1
10
22.033255
20
138.792906
11
23.212763
21
140.015250
0
LINE
8
Layer 1
10
23.212763
20
140.015250
11
24.638739
21
140.970969
0
LINE
8
Layer 1
10
24.638739
20
140.970969
11
26.242400
21
141.766000
0
LINE
8
Layer 1
10
26.242400
20
141.766000
11
23.205511
21
143.543781
0
LINE
8
Layer 1
10
23.205511
20
143.543781
11
20.111387
21
145.691500
0
LINE
8
Layer 1
10
20.111387
20
145.691500
11
18.705657
21
146.923949
0
LINE
8
Layer 1
10
18.705657
20
146.923949
11
17.480970
21
148.272719
0
LINE
8
Layer 1
10
17.480970
20
148.272719
11
16.502446
21
149.745754
0
LINE
8
Layer 1
10
16.502446
20
149.745754
11
15.835200
21
151.351000
0
LINE
8
Layer 1
10
15.835200
20
151.351000
11
15.743900
21
151.688000
0
LINE
8
Layer 1
10
15.743900
20
151.688000
11
15.669200
21
152.029000
0
LINE
8
Layer 1
10
15.669200
20
152.029000
11
15.611400
21
152.374000
0
LINE
8
Layer 1
10
15.611400
20
152.374000
11
15.570600
21
152.721000
0
LINE
8
Layer 1
10
15.570600
20
152.721000
11
15.546800
21
153.069000
0
LINE
8
Layer 1
10
15.546800
20
153.069000
11
15.540300
21
153.419000
0
LINE
8
Layer 1
10
15.540300
20
153.419000
11
15.550800
21
153.768000
0
LINE
8
Layer 1
10
15.550800
20
153.768000
11
15.578500
21
154.116000
0
LINE
8
Layer 1
10
15.578500
20
154.116000
11
15.623300
21
154.463000
0
LINE
8
Layer 1
10
15.623300
20
154.463000
11
15.685100
21
154.807000
0
LINE
8
Layer 1
10
15.685100
20
154.807000
11
15.763600
21
155.147000
0
LINE
8
Layer 1
10
15.763600
20
155.147000
11
15.858800
21
155.483000
0
LINE
8
Layer 1
10
15.858800
20
155.483000
11
15.970400
21
155.815000
0
LINE
8
Layer 1
10
15.970400
20
155.815000
11
16.098000
21
156.140000
0
LINE
8
Layer 1
10
16.098000
20
156.140000
11
16.241600
21
156.458000
0
LINE
8
Layer 1
10
16.241600
20
156.458000
11
16.400500
21
156.769000
0
LINE
8
Layer 1
10
16.400500
20
156.769000
11
17.496314
21
158.250328
0
LINE
8
Layer 1
10
17.496314
20
158.250328
11
18.861912
21
159.360125
0
LINE
8
Layer 1
10
18.861912
20
159.360125
11
20.436255
21
160.182109
0
LINE
8
Layer 1
10
20.436255
20
160.182109
11
22.158300
21
160.800000
0
LINE
8
Layer 1
10
22.158300
20
160.800000
11
21.150125
21
162.947750
0
LINE
8
Layer 1
10
21.150125
20
162.947750
11
20.289400
21
165.157000
0
LINE
8
Layer 1
10
20.289400
20
165.157000
11
19.834995
21
166.853102
0
LINE
8
Layer 1
10
19.834995
20
166.853102
11
19.443844
21
168.954063
0
LINE
8
Layer 1
10
19.443844
20
168.954063
11
18.969575
21
173.816500
0
LINE
8
Layer 1
10
18.969575
20
173.816500
11
18.945595
21
176.300945
0
LINE
8
Layer 1
10
18.945595
20
176.300945
11
19.103144
21
178.636188
0
LINE
8
Layer 1
10
19.103144
20
178.636188
11
19.471789
21
180.683711
0
LINE
8
Layer 1
10
19.471789
20
180.683711
11
20.081100
21
182.305000
0
LINE
8
Layer 1
10
20.081100
20
182.305000
11
20.882475
21
183.239750
0
LINE
8
Layer 1
10
20.882475
20
183.239750
11
21.999900
21
183.771000
0
LINE
8
Layer 1
10
21.999900
20
183.771000
11
24.065332
21
184.139984
0
LINE
8
Layer 1
10
24.065332
20
184.139984
11
26.451788
21
184.178125
0
LINE
8
Layer 1
10
26.451788
20
184.178125
11
29.043855
21
183.933703
0
LINE
8
Layer 1
10
29.043855
20
183.933703
11
31.726125
21
183.455000
0
LINE
8
Layer 1
10
31.726125
20
183.455000
11
34.383185
21
182.790297
0
LINE
8
Layer 1
10
34.383185
20
182.790297
11
36.899625
21
181.987875
0
LINE
8
Layer 1
10
36.899625
20
181.987875
11
39.160034
21
181.096016
0
LINE
8
Layer 1
10
39.160034
20
181.096016
11
41.049000
21
180.163000
0
LINE
8
Layer 1
10
41.049000
20
180.163000
11
40.891688
21
182.302500
0
LINE
8
Layer 1
10
40.891688
20
182.302500
11
41.107200
21
184.430000
0
LINE
8
Layer 1
10
41.107200
20
184.430000
11
41.513228
21
185.595672
0
LINE
8
Layer 1
10
41.513228
20
185.595672
11
42.135500
21
186.647625
0
LINE
8
Layer 1
10
42.135500
20
186.647625
11
42.957797
21
187.549766
0
LINE
8
Layer 1
10
42.957797
20
187.549766
11
43.963900
21
188.266000
0
LINE
8
Layer 1
10
43.963900
20
188.266000
11
45.285777
21
188.801234
0
LINE
8
Layer 1
10
45.285777
20
188.801234
11
46.682362
21
189.016125
0
LINE
8
Layer 1
10
46.682362
20
189.016125
11
48.102367
21
188.952953
0
LINE
8
Layer 1
10
48.102367
20
188.952953
11
49.494500
21
188.654000
0
LINE
8
Layer 1
10
49.494500
20
188.654000
11
51.585193
21
187.807713
0
LINE
8
Layer 1
10
51.585193
20
187.807713
11
53.415009
21
186.630641
0
LINE
8
Layer 1
10
53.415009
20
186.630641
11
55.020721
21
185.182092
0
LINE
8
Layer 1
10
55.020721
20
185.182092
11
56.439100
21
183.521375
0
LINE
8
Layer 1
10
56.439100
20
183.521375
11
57.706916
21
181.707799
0
LINE
8
Layer 1
10
57.706916
20
181.707799
11
58.860941
21
179.800672
0
LINE
8
Layer 1
10
58.860941
20
179.800672
11
60.974700
21
175.943000
0
LINE
8
Layer 1
10
60.974700
20
175.943000
11
61.640200
21
177.610000
0
LINE
8
Layer 1
10
61.640200
20
177.610000
11
62.324175
21
178.655516
0
LINE
8
Layer 1
10
62.324175
20
178.655516
11
63.181700
21
179.542875
0
LINE
8
Layer 1
10
63.181700
20
179.542875
11
64.196425
21
180.239547
0
LINE
8
Layer 1
10
64.196425
20
180.239547
11
65.352000
21
180.713000
0
LINE
8
Layer 1
10
65.352000
20
180.713000
11
67.000013
21
181.010283
0
LINE
8
Layer 1
10
67.000013
20
181.010283
11
68.586672
21
180.961078
0
LINE
8
Layer 1
10
68.586672
20
180.961078
11
70.112250
21
180.600553
0
LINE
8
Layer 1
10
70.112250
20
180.600553
11
71.577017
21
179.963875
0
LINE
8
Layer 1
10
71.577017
20
179.963875
11
72.981247
21
179.086213
0
LINE
8
Layer 1
10
72.981247
20
179.086213
11
74.325213
21
178.002734
0
LINE
8
Layer 1
10
74.325213
20
178.002734
11
76.833437
21
175.359000
0
LINE
8
Layer 1
10
76.833437
20
175.359000
11
79.103870
21
172.314016
0
LINE
8
Layer 1
10
79.103870
20
172.314016
11
81.138689
21
169.149125
0
LINE
8
Layer 1
10
81.138689
20
169.149125
11
84.510200
21
163.585000
0
LINE
8
Layer 1
10
84.510200
20
163.585000
11
86.400730
21
160.752203
0
LINE
8
Layer 1
10
86.400730
20
160.752203
11
88.517712
21
157.956625
0
LINE
8
Layer 1
10
88.517712
20
157.956625
11
90.916864
21
155.438734
0
LINE
8
Layer 1
10
90.916864
20
155.438734
11
92.239664
21
154.359068
0
LINE
8
Layer 1
10
92.239664
20
154.359068
11
93.653900
21
153.439000
0
LINE
8
Layer 1
10
93.653900
20
153.439000
11
90.860648
21
156.322563
0
LINE
8
Layer 1
10
90.860648
20
156.322563
11
88.408787
21
159.461500
0
LINE
8
Layer 1
10
88.408787
20
159.461500
11
86.388608
21
162.883938
0
LINE
8
Layer 1
10
86.388608
20
162.883938
11
85.568614
21
164.710258
0
LINE
8
Layer 1
10
85.568614
20
164.710258
11
84.890400
21
166.618000
0
LINE
8
Layer 1
10
84.890400
20
166.618000
11
84.258758
21
169.051156
0
LINE
8
Layer 1
10
84.258758
20
169.051156
11
83.926412
21
171.612000
0
LINE
8
Layer 1
10
83.926412
20
171.612000
11
83.931694
21
172.893840
0
LINE
8
Layer 1
10
83.931694
20
172.893840
11
84.082861
21
174.151844
0
LINE
8
Layer 1
10
84.082861
20
174.151844
11
84.403601
21
175.367426
0
LINE
8
Layer 1
10
84.403601
20
175.367426
11
84.917600
21
176.522000
0
LINE
8
Layer 1
10
84.917600
20
176.522000
11
85.775725
21
177.739891
0
LINE
8
Layer 1
10
85.775725
20
177.739891
11
86.843250
21
178.710375
0
LINE
8
Layer 1
10
86.843250
20
178.710375
11
88.090100
21
179.440672
0
LINE
8
Layer 1
10
88.090100
20
179.440672
11
89.486200
21
179.938000
0
LINE
8
Layer 1
10
89.486200
20
179.938000
11
90.844383
21
180.189803
0
LINE
8
Layer 1
10
90.844383
20
180.189803
11
92.202067
21
180.248234
0
LINE
8
Layer 1
10
92.202067
20
180.248234
11
93.551171
21
180.134330
0
LINE
8
Layer 1
10
93.551171
20
180.134330
11
94.883612
21
179.869125
0
LINE
8
Layer 1
10
94.883612
20
179.869125
11
97.466177
21
178.968953
0
LINE
8
Layer 1
10
97.466177
20
178.968953
11
99.885100
21
177.716000
0
LINE
8
Layer 1
10
99.885100
20
177.716000
11
98.072725
21
180.235375
0
LINE
8
Layer 1
10
98.072725
20
180.235375
11
96.209500
21
182.730000
0
LINE
8
Layer 1
10
96.209500
20
182.730000
11
93.499591
21
186.988359
0
LINE
8
Layer 1
10
93.499591
20
186.988359
11
91.050850
21
191.533125
0
LINE
8
Layer 1
10
91.050850
20
191.533125
11
89.007559
21
196.265578
0
LINE
8
Layer 1
10
89.007559
20
196.265578
11
88.183046
21
198.671338
0
LINE
8
Layer 1
10
88.183046
20
198.671338
11
87.514000
21
201.087000
0
LINE
8
Layer 1
10
87.514000
20
201.087000
11
86.628781
21
205.157875
0
LINE
8
Layer 1
10
86.628781
20
205.157875
11
86.311923
21
207.259102
0
LINE
8
Layer 1
10
86.311923
20
207.259102
11
86.145825
21
209.369750
0
LINE
8
Layer 1
10
86.145825
20
209.369750
11
86.180680
21
211.463992
0
LINE
8
Layer 1
10
86.180680
20
211.463992
11
86.466681
21
213.516000
0
LINE
8
Layer 1
10
86.466681
20
213.516000
11
87.054023
21
215.499945
0
LINE
8
Layer 1
10
87.054023
20
215.499945
11
87.992900
21
217.390000
0
LINE
8
Layer 1
10
87.992900
20
217.390000
11
89.359320
21
219.243812
0
LINE
8
Layer 1
10
89.359320
20
219.243812
11
91.051588
21
220.879750
0
LINE
8
Layer 1
10
91.051588
20
220.879750
11
93.007911
21
222.162813
0
LINE
8
Layer 1
10
93.007911
20
222.162813
11
95.166500
21
222.958000
0
LINE
8
Layer 1
10
95.166500
20
222.958000
11
96.369351
21
223.147654
0
LINE
8
Layer 1
10
96.369351
20
223.147654
11
97.561278
21
223.180359
0
LINE
8
Layer 1
10
97.561278
20
223.180359
11
99.895400
21
222.833375
0
LINE
8
Layer 1
10
99.895400
20
222.833375
11
102.134947
21
222.033953
0
LINE
8
Layer 1
10
102.134947
20
222.033953
11
104.246000
21
220.899000
0
LINE
8
Layer 1
10
104.246000
20
220.899000
11
103.059000
21
225.477000
0
LINE
8
Layer 1
10
103.059000
20
225.477000
11
102.412344
21
229.239953
0
LINE
8
Layer 1
10
102.412344
20
229.239953
11
102.233145
21
231.237404
0
LINE
8
Layer 1
10
102.233145
20
231.237404
11
102.196750
21
233.256125
0
LINE
8
Layer 1
10
102.196750
20
233.256125
11
102.338199
21
235.254080
0
LINE
8
Layer 1
10
102.338199
20
235.254080
11
102.692531
21
237.189234
0
LINE
8
Layer 1
10
102.692531
20
237.189234
11
103.294785
21
239.019553
0
LINE
8
Layer 1
10
103.294785
20
239.019553
11
104.180000
21
240.703000
0
LINE
8
Layer 1
10
104.180000
20
240.703000
11
105.185453
21
241.955359
0
LINE
8
Layer 1
10
105.185453
20
241.955359
11
106.391625
21
242.948125
0
LINE
8
Layer 1
10
106.391625
20
242.948125
11
107.776484
21
243.674828
0
LINE
8
Layer 1
10
107.776484
20
243.674828
11
109.318000
21
244.129000
0
LINE
8
Layer 1
10
109.318000
20
244.129000
11
110.578377
21
244.285676
0
LINE
8
Layer 1
10
110.578377
20
244.285676
11
111.776516
21
244.262844
0
LINE
8
Layer 1
10
111.776516
20
244.262844
11
112.922553
21
244.080590
0
LINE
8
Layer 1
10
112.922553
20
244.080590
11
114.026625
21
243.759000
0
LINE
8
Layer 1
10
114.026625
20
243.759000
11
116.149422
21
242.778156
0
LINE
8
Layer 1
10
116.149422
20
242.778156
11
118.226000
21
241.481000
0
LINE
8
Layer 1
10
118.226000
20
241.481000
11
119.952000
21
246.012000
0
LINE
8
Layer 1
10
119.952000
20
246.012000
11
122.116000
21
250.351000
0
LINE
8
Layer 1
10
122.116000
20
250.351000
11
124.470422
21
253.925172
0
LINE
8
Layer 1
10
124.470422
20
253.925172
11
127.731125
21
257.865625
0
LINE
8
Layer 1
10
127.731125
20
257.865625
11
129.547318
21
259.691693
0
LINE
8
Layer 1
10
129.547318
20
259.691693
11
131.405266
21
261.271516
0
LINE
8
Layer 1
10
131.405266
20
261.271516
11
133.243361
21
262.492486
0
LINE
8
Layer 1
10
133.243361
20
262.492486
11
135.000000
21
263.242000
0
LINE
8
Layer 1
10
135.000000
20
263.242000
11
135.000000
21
263.242000
0
LINE
8
Layer 1
10
135.671000
20
40.635700
11
135.916750
21
37.581087
0
LINE
8
Layer 1
10
135.916750
20
37.581087
11
136.035000
21
34.515900
0
LINE
8
Layer 1
10
136.035000
20
34.515900
11
136.540000
21
25.718500
0
LINE
8
Layer 1
10
136.540000
20
25.718500
11
137.121000
21
19.128000
0
LINE
8
Layer 1
10
137.121000
20
19.128000
11
137.443625
21
16.587300
0
LINE
8
Layer 1
10
137.443625
20
16.587300
11
137.680000
21
14.041200
0
LINE
8
Layer 1
10
137.680000
20
14.041200
11
137.655500
21
13.000775
0
LINE
8
Layer 1
10
137.655500
20
13.000775
11
137.322000
21
12.025300
0
LINE
8
Layer 1
10
137.322000
20
12.025300
11
136.936766
21
11.577817
0
LINE
8
Layer 1
10
136.936766
20
11.577817
11
136.469125
21
11.270012
0
LINE
8
Layer 1
10
136.469125
20
11.270012
11
135.374000
21
10.906600
0
LINE
8
Layer 1
10
135.374000
20
10.906600
11
134.412500
21
11.248300
0
LINE
8
Layer 1
10
134.412500
20
11.248300
11
133.640000
21
11.908900
0
LINE
8
Layer 1
10
133.640000
20
11.908900
11
133.330875
21
12.500888
0
LINE
8
Layer 1
10
133.330875
20
12.500888
11
133.228000
21
13.158500
0
LINE
8
Layer 1
10
133.228000
20
13.158500
11
133.387750
21
15.486675
0
LINE
8
Layer 1
10
133.387750
20
15.486675
11
133.660000
21
17.807500
0
LINE
8
Layer 1
10
133.660000
20
17.807500
11
134.425000
21
25.279100
0
LINE
8
Layer 1
10
134.425000
20
25.279100
11
135.008625
21
32.965125
0
LINE
8
Layer 1
10
135.008625
20
32.965125
11
135.671000
21
40.635700
0
LINE
8
Layer 1
10
135.671000
20
40.635700
11
135.671000
21
40.635700
0
LINE
8
Layer 1
10
135.346000
20
259.993000
11
135.694000
21
259.896000
0
LINE
8
Layer 1
10
135.694000
20
259.896000
11
136.948500
21
259.153000
0
LINE
8
Layer 1
10
136.948500
20
259.153000
11
138.104000
21
258.239000
0
LINE
8
Layer 1
10
138.104000
20
258.239000
11
141.095609
21
255.466375
0
LINE
8
Layer 1
10
141.095609
20
255.466375
11
143.914625
21
252.163500
0
LINE
8
Layer 1
10
143.914625
20
252.163500
11
146.325078
21
248.553875
0
LINE
8
Layer 1
10
146.325078
20
248.553875
11
147.303354
21
246.703875
0
LINE
8
Layer 1
10
147.303354
20
246.703875
11
148.091000
21
244.861000
0
LINE
8
Layer 1
10
148.091000
20
244.861000
11
149.099000
21
241.676000
0
LINE
8
Layer 1
10
149.099000
20
241.676000
11
149.533625
21
239.719125
0
LINE
8
Layer 1
10
149.533625
20
239.719125
11
150.155000
21
237.829000
0
LINE
8
Layer 1
10
150.155000
20
237.829000
11
150.672875
21
237.125125
0
LINE
8
Layer 1
10
150.672875
20
237.125125
11
151.433000
21
236.695000
0
LINE
8
Layer 1
10
151.433000
20
236.695000
11
151.933699
21
236.643510
0
LINE
8
Layer 1
10
151.933699
20
236.643510
11
152.418719
21
236.767766
0
LINE
8
Layer 1
10
152.418719
20
236.767766
11
153.332250
21
237.384375
0
LINE
8
Layer 1
10
153.332250
20
237.384375
11
154.867000
21
238.976000
0
LINE
8
Layer 1
10
154.867000
20
238.976000
11
156.434000
21
240.059000
0
LINE
8
Layer 1
10
156.434000
20
240.059000
11
157.552922
21
240.612125
0
LINE
8
Layer 1
10
157.552922
20
240.612125
11
158.729875
21
240.975500
0
LINE
8
Layer 1
10
158.729875
20
240.975500
11
159.946391
21
241.092875
0
LINE
8
Layer 1
10
159.946391
20
241.092875
11
161.184000
21
240.908000
0
LINE
8
Layer 1
10
161.184000
20
240.908000
11
162.205852
21
240.500650
0
LINE
8
Layer 1
10
162.205852
20
240.500650
11
163.073813
21
239.921791
0
LINE
8
Layer 1
10
163.073813
20
239.921791
11
163.798430
21
239.191213
0
LINE
8
Layer 1
10
163.798430
20
239.191213
11
164.390250
21
238.328703
0
LINE
8
Layer 1
10
164.390250
20
238.328703
11
165.217687
21
236.287045
0
LINE
8
Layer 1
10
165.217687
20
236.287045
11
165.640500
21
233.955125
0
LINE
8
Layer 1
10
165.640500
20
233.955125
11
165.743062
21
231.491252
0
LINE
8
Layer 1
10
165.743062
20
231.491252
11
165.609750
21
229.053734
0
LINE
8
Layer 1
10
165.609750
20
229.053734
11
164.973000
21
224.891000
0
LINE
8
Layer 1
10
164.973000
20
224.891000
11
163.996000
21
221.312250
0
LINE
8
Layer 1
10
163.996000
20
221.312250
11
163.082000
21
217.738000
0
LINE
8
Layer 1
10
163.082000
20
217.738000
11
162.986875
21
216.591625
0
LINE
8
Layer 1
10
162.986875
20
216.591625
11
163.059922
21
215.997203
0
LINE
8
Layer 1
10
163.059922
20
215.997203
11
163.269000
21
215.494000
0
LINE
8
Layer 1
10
163.269000
20
215.494000
11
163.727750
21
215.074875
0
LINE
8
Layer 1
10
163.727750
20
215.074875
11
164.323000
21
214.889000
0
LINE
8
Layer 1
10
164.323000
20
214.889000
11
164.987135
21
214.901287
0
LINE
8
Layer 1
10
164.987135
20
214.901287
11
165.648516
21
215.118172
0
LINE
8
Layer 1
10
165.648516
20
215.118172
11
166.937375
21
215.972375
0
LINE
8
Layer 1
10
166.937375
20
215.972375
11
169.200000
21
218.009000
0
LINE
8
Layer 1
10
169.200000
20
218.009000
11
170.489562
21
218.814312
0
LINE
8
Layer 1
10
170.489562
20
218.814312
11
171.937000
21
219.392750
0
LINE
8
Layer 1
10
171.937000
20
219.392750
11
173.460938
21
219.685812
0
LINE
8
Layer 1
10
173.460938
20
219.685812
11
174.980000
21
219.635000
0
LINE
8
Layer 1
10
174.980000
20
219.635000
11
176.283219
21
219.270516
0
LINE
8
Layer 1
10
176.283219
20
219.270516
11
177.449000
21
218.645875
0
LINE
8
Layer 1
10
177.449000
20
218.645875
11
178.470031
21
217.798297
0
LINE
8
Layer 1
10
178.470031
20
217.798297
11
179.339000
21
216.765000
0
LINE
8
Layer 1
10
179.339000
20
216.765000
11
180.372250
21
214.903719
0
LINE
8
Layer 1
10
180.372250
20
214.903719
11
181.035000
21
212.869750
0
LINE
8
Layer 1
10
181.035000
20
212.869750
11
181.393250
21
210.747656
0
LINE
8
Layer 1
10
181.393250
20
210.747656
11
181.513000
21
208.622000
0
LINE
8
Layer 1
10
181.513000
20
208.622000
11
181.455101
21
206.628778
0
LINE
8
Layer 1
10
181.455101
20
206.628778
11
181.245934
21
204.692070
0
LINE
8
Layer 1
10
181.245934
20
204.692070
11
180.426469
21
200.968438
0
LINE
8
Layer 1
10
180.426469
20
200.968438
11
179.159957
21
197.411586
0
LINE
8
Layer 1
10
179.159957
20
197.411586
11
177.551750
21
193.982000
0
LINE
8
Layer 1
10
177.551750
20
193.982000
11
175.707199
21
190.640164
0
LINE
8
Layer 1
10
175.707199
20
190.640164
11
173.731656
21
187.346562
0
LINE
8
Layer 1
10
173.731656
20
187.346562
11
169.809000
21
180.746000
0
LINE
8
Layer 1
10
169.809000
20
180.746000
11
168.319000
21
177.957125
0
LINE
8
Layer 1
10
168.319000
20
177.957125
11
167.687813
21
176.461297
0
LINE
8
Layer 1
10
167.687813
20
176.461297
11
167.315000
21
175.016000
0
LINE
8
Layer 1
10
167.315000
20
175.016000
11
167.331000
21
174.095750
0
LINE
8
Layer 1
10
167.331000
20
174.095750
11
167.719000
21
173.267000
0
LINE
8
Layer 1
10
167.719000
20
173.267000
11
168.436070
21
172.695006
0
LINE
8
Layer 1
10
168.436070
20
172.695006
11
169.263438
21
172.537047
0
LINE
8
Layer 1
10
169.263438
20
172.537047
11
170.162711
21
172.703533
0
LINE
8
Layer 1
10
170.162711
20
172.703533
11
171.095500
21
173.104875
0
LINE
8
Layer 1
10
171.095500
20
173.104875
11
172.908062
21
174.253766
0
LINE
8
Layer 1
10
172.908062
20
174.253766
11
174.394000
21
175.267000
0
LINE
8
Layer 1
10
174.394000
20
175.267000
11
175.726297
21
175.953250
0
LINE
8
Layer 1
10
175.726297
20
175.953250
11
177.206625
21
176.520250
0
LINE
8
Layer 1
10
177.206625
20
176.520250
11
178.741141
21
176.861125
0
LINE
8
Layer 1
10
178.741141
20
176.861125
11
180.236000
21
176.869000
0
LINE
8
Layer 1
10
180.236000
20
176.869000
11
181.076344
21
176.653797
0
LINE
8
Layer 1
10
181.076344
20
176.653797
11
181.829500
21
176.264125
0
LINE
8
Layer 1
10
181.829500
20
176.264125
11
182.489656
21
175.726141
0
LINE
8
Layer 1
10
182.489656
20
175.726141
11
183.051000
21
175.066000
0
LINE
8
Layer 1
10
183.051000
20
175.066000
11
183.536225
21
174.213168
0
LINE
8
Layer 1
10
183.536225
20
174.213168
11
183.835395
21
173.293471
0
LINE
8
Layer 1
10
183.835395
20
173.293471
11
183.965375
21
172.318229
0
LINE
8
Layer 1
10
183.965375
20
172.318229
11
183.943031
21
171.298766
0
LINE
8
Layer 1
10
183.943031
20
171.298766
11
183.508840
21
169.172459
0
LINE
8
Layer 1
10
183.508840
20
169.172459
11
182.667750
21
167.005125
0
LINE
8
Layer 1
10
182.667750
20
167.005125
11
181.554691
21
164.887338
0
LINE
8
Layer 1
10
181.554691
20
164.887338
11
180.304594
21
162.909672
0
LINE
8
Layer 1
10
180.304594
20
162.909672
11
177.933000
21
159.737000
0
LINE
8
Layer 1
10
177.933000
20
159.737000
11
174.348875
21
155.758625
0
LINE
8
Layer 1
10
174.348875
20
155.758625
11
172.523016
21
153.466953
0
LINE
8
Layer 1
10
172.523016
20
153.466953
11
171.917416
21
152.466119
0
LINE
8
Layer 1
10
171.917416
20
152.466119
11
171.637000
21
151.646000
0
LINE
8
Layer 1
10
171.637000
20
151.646000
11
171.686875
21
150.762000
0
LINE
8
Layer 1
10
171.686875
20
150.762000
11
172.078000
21
149.971000
0
LINE
8
Layer 1
10
172.078000
20
149.971000
11
172.840125
21
149.349750
0
LINE
8
Layer 1
10
172.840125
20
149.349750
11
173.786000
21
149.075000
0
LINE
8
Layer 1
10
173.786000
20
149.075000
11
174.747297
21
149.108359
0
LINE
8
Layer 1
10
174.747297
20
149.108359
11
175.734375
21
149.333625
0
LINE
8
Layer 1
10
175.734375
20
149.333625
11
177.592000
21
150.049000
0
LINE
8
Layer 1
10
177.592000
20
150.049000
11
179.187358
21
150.851905
0
LINE
8
Layer 1
10
179.187358
20
150.851905
11
180.667584
21
151.799691
0
LINE
8
Layer 1
10
180.667584
20
151.799691
11
182.043592
21
152.877281
0
LINE
8
Layer 1
10
182.043592
20
152.877281
11
183.326297
21
154.069594
0
LINE
8
Layer 1
10
183.326297
20
154.069594
11
185.655455
21
156.738074
0
LINE
8
Layer 1
10
185.655455
20
156.738074
11
187.742375
21
159.684500
0
LINE
8
Layer 1
10
187.742375
20
159.684500
11
191.538766
21
165.928656
0
LINE
8
Layer 1
10
191.538766
20
165.928656
11
193.422869
21
168.985121
0
LINE
8
Layer 1
10
193.422869
20
168.985121
11
195.414000
21
171.837000
0
LINE
8
Layer 1
10
195.414000
20
171.837000
11
197.189750
21
174.024125
0
LINE
8
Layer 1
10
197.189750
20
174.024125
11
199.225000
21
175.963000
0
LINE
8
Layer 1
10
199.225000
20
175.963000
11
200.286094
21
176.692859
0
LINE
8
Layer 1
10
200.286094
20
176.692859
11
201.463250
21
177.278625
0
LINE
8
Layer 1
10
201.463250
20
177.278625
11
202.715031
21
177.620828
0
LINE
8
Layer 1
10
202.715031
20
177.620828
11
204.000000
21
177.620000
0
LINE
8
Layer 1
10
204.000000
20
177.620000
11
205.194234
21
177.229766
0
LINE
8
Layer 1
10
205.194234
20
177.229766
11
206.063625
21
176.552188
0
LINE
8
Layer 1
10
206.063625
20
176.552188
11
206.678203
21
175.667703
0
LINE
8
Layer 1
10
206.678203
20
175.667703
11
207.108000
21
174.656750
0
LINE
8
Layer 1
10
207.108000
20
174.656750
11
207.693375
21
172.577187
0
LINE
8
Layer 1
10
207.693375
20
172.577187
11
207.989016
21
171.669453
0
LINE
8
Layer 1
10
207.989016
20
171.669453
11
208.380000
21
170.957000
0
LINE
8
Layer 1
10
208.380000
20
170.957000
11
208.878250
21
170.525250
0
LINE
8
Layer 1
10
208.878250
20
170.525250
11
209.504000
21
170.320000
0
LINE
8
Layer 1
10
209.504000
20
170.320000
11
210.239375
21
170.402000
0
LINE
8
Layer 1
10
210.239375
20
170.402000
11
210.809000
21
170.865000
0
LINE
8
Layer 1
10
210.809000
20
170.865000
11
211.718250
21
172.582625
0
LINE
8
Layer 1
10
211.718250
20
172.582625
11
212.422000
21
174.409000
0
LINE
8
Layer 1
10
212.422000
20
174.409000
11
213.625000
21
177.076188
0
LINE
8
Layer 1
10
213.625000
20
177.076188
11
215.048500
21
179.533000
0
LINE
8
Layer 1
10
215.048500
20
179.533000
11
216.778000
21
181.776063
0
LINE
8
Layer 1
10
216.778000
20
181.776063
11
218.899000
21
183.802000
0
LINE
8
Layer 1
10
218.899000
20
183.802000
11
220.108203
21
184.700359
0
LINE
8
Layer 1
10
220.108203
20
184.700359
11
221.480625
21
185.483125
0
LINE
8
Layer 1
10
221.480625
20
185.483125
11
222.949984
21
185.993078
0
LINE
8
Layer 1
10
222.949984
20
185.993078
11
224.450000
21
186.073000
0
LINE
8
Layer 1
10
224.450000
20
186.073000
11
224.711000
21
186.030000
0
LINE
8
Layer 1
10
224.711000
20
186.030000
11
224.968000
21
185.966000
0
LINE
8
Layer 1
10
224.968000
20
185.966000
11
225.219000
21
185.881000
0
LINE
8
Layer 1
10
225.219000
20
185.881000
11
225.462000
21
185.776000
0
LINE
8
Layer 1
10
225.462000
20
185.776000
11
225.695000
21
185.652000
0
LINE
8
Layer 1
10
225.695000
20
185.652000
11
225.918000
21
185.509000
0
LINE
8
Layer 1
10
225.918000
20
185.509000
11
226.128000
21
185.348000
0
LINE
8
Layer 1
10
226.128000
20
185.348000
11
226.324000
21
185.170000
0
LINE
8
Layer 1
10
226.324000
20
185.170000
11
227.057977
21
184.156973
0
LINE
8
Layer 1
10
227.057977
20
184.156973
11
227.400500
21
183.026406
0
LINE
8
Layer 1
10
227.400500
20
183.026406
11
227.464961
21
181.830824
0
LINE
8
Layer 1
10
227.464961
20
181.830824
11
227.364750
21
180.622750
0
LINE
8
Layer 1
10
227.364750
20
180.622750
11
227.123875
21
178.379219
0
LINE
8
Layer 1
10
227.123875
20
178.379219
11
227.209992
21
177.448809
0
LINE
8
Layer 1
10
227.209992
20
177.448809
11
227.585000
21
176.716000
0
LINE
8
Layer 1
10
227.585000
20
176.716000
11
228.097938
21
176.398625
0
LINE
8
Layer 1
10
228.097938
20
176.398625
11
228.701250
21
176.360250
0
LINE
8
Layer 1
10
228.701250
20
176.360250
11
229.867000
21
176.744000
0
LINE
8
Layer 1
10
229.867000
20
176.744000
11
231.644000
21
177.768875
0
LINE
8
Layer 1
10
231.644000
20
177.768875
11
233.439000
21
178.763000
0
LINE
8
Layer 1
10
233.439000
20
178.763000
11
235.191541
21
179.491500
0
LINE
8
Layer 1
10
235.191541
20
179.491500
11
236.997953
21
180.063250
0
LINE
8
Layer 1
10
236.997953
20
180.063250
11
240.724625
21
180.774000
0
LINE
8
Layer 1
10
240.724625
20
180.774000
11
244.523484
21
180.970250
0
LINE
8
Layer 1
10
244.523484
20
180.970250
11
248.299000
21
180.727000
0
LINE
8
Layer 1
10
248.299000
20
180.727000
11
248.741156
21
178.725516
0
LINE
8
Layer 1
10
248.741156
20
178.725516
11
248.946125
21
176.582937
0
LINE
8
Layer 1
10
248.946125
20
176.582937
11
248.933781
21
174.352328
0
LINE
8
Layer 1
10
248.933781
20
174.352328
11
248.724000
21
172.086750
0
LINE
8
Layer 1
10
248.724000
20
172.086750
11
248.336656
21
169.839266
0
LINE
8
Layer 1
10
248.336656
20
169.839266
11
247.791625
21
167.662937
0
LINE
8
Layer 1
10
247.791625
20
167.662937
11
247.108781
21
165.610828
0
LINE
8
Layer 1
10
247.108781
20
165.610828
11
246.308000
21
163.736000
0
LINE
8
Layer 1
10
246.308000
20
163.736000
11
245.029250
21
161.615500
0
LINE
8
Layer 1
10
245.029250
20
161.615500
11
244.448937
21
160.488687
0
LINE
8
Layer 1
10
244.448937
20
160.488687
11
244.196000
21
159.393000
0
LINE
8
Layer 1
10
244.196000
20
159.393000
11
244.269297
21
158.940766
0
LINE
8
Layer 1
10
244.269297
20
158.940766
11
244.473375
21
158.561375
0
LINE
8
Layer 1
10
244.473375
20
158.561375
11
245.080000
21
157.900000
0
LINE
8
Layer 1
10
245.080000
20
157.900000
11
248.341125
21
157.264000
0
LINE
8
Layer 1
10
248.341125
20
157.264000
11
249.867016
21
156.691750
0
LINE
8
Layer 1
10
249.867016
20
156.691750
11
250.561752
21
156.247563
0
LINE
8
Layer 1
10
250.561752
20
156.247563
11
251.195000
21
155.662000
0
LINE
8
Layer 1
10
251.195000
20
155.662000
11
251.433000
21
155.367000
0
LINE
8
Layer 1
10
251.433000
20
155.367000
11
251.642000
21
155.050000
0
LINE
8
Layer 1
10
251.642000
20
155.050000
11
251.818000
21
154.714000
0
LINE
8
Layer 1
10
251.818000
20
154.714000
11
251.961000
21
154.362000
0
LINE
8
Layer 1
10
251.961000
20
154.362000
11
252.068000
21
153.998000
0
LINE
8
Layer 1
10
252.068000
20
153.998000
11
252.138000
21
153.625000
0
LINE
8
Layer 1
10
252.138000
20
153.625000
11
252.172000
21
153.247000
0
LINE
8
Layer 1
10
252.172000
20
153.247000
11
252.168000
21
152.868000
0
LINE
8
Layer 1
10
252.168000
20
152.868000
11
251.804428
21
151.360152
0
LINE
8
Layer 1
10
251.804428
20
151.360152
11
250.972984
21
149.954844
0
LINE
8
Layer 1
10
250.972984
20
149.954844
11
249.783580
21
148.655051
0
LINE
8
Layer 1
10
249.783580
20
148.655051
11
248.346125
21
147.463750
0
LINE
8
Layer 1
10
248.346125
20
147.463750
11
245.166703
21
145.418531
0
LINE
8
Layer 1
10
245.166703
20
145.418531
11
242.314000
21
143.843000
0
LINE
8
Layer 1
10
242.314000
20
143.843000
11
240.608000
21
142.927125
0
LINE
8
Layer 1
10
240.608000
20
142.927125
11
239.034000
21
141.826000
0
LINE
8
Layer 1
10
239.034000
20
141.826000
11
238.433000
21
141.111750
0
LINE
8
Layer 1
10
238.433000
20
141.111750
11
238.235813
21
140.684687
0
LINE
8
Layer 1
10
238.235813
20
140.684687
11
238.177000
21
140.231000
0
LINE
8
Layer 1
10
238.177000
20
140.231000
11
238.390902
21
139.609027
0
LINE
8
Layer 1
10
238.390902
20
139.609027
11
238.892406
21
139.214094
0
LINE
8
Layer 1
10
238.892406
20
139.214094
11
239.605082
21
138.997051
0
LINE
8
Layer 1
10
239.605082
20
138.997051
11
240.452500
21
138.908750
0
LINE
8
Layer 1
10
240.452500
20
138.908750
11
242.245844
21
138.921781
0
LINE
8
Layer 1
10
242.245844
20
138.921781
11
243.661000
21
138.860000
0
LINE
8
Layer 1
10
243.661000
20
138.860000
11
244.649000
21
138.459125
0
LINE
8
Layer 1
10
244.649000
20
138.459125
11
245.535000
21
137.855000
0
LINE
8
Layer 1
10
245.535000
20
137.855000
11
246.134547
21
137.293281
0
LINE
8
Layer 1
10
246.134547
20
137.293281
11
246.612875
21
136.641750
0
LINE
8
Layer 1
10
246.612875
20
136.641750
11
246.949266
21
135.909594
0
LINE
8
Layer 1
10
246.949266
20
135.909594
11
247.123000
21
135.106000
0
LINE
8
Layer 1
10
247.123000
20
135.106000
11
247.122143
21
134.262492
0
LINE
8
Layer 1
10
247.122143
20
134.262492
11
246.963891
21
133.429250
0
LINE
8
Layer 1
10
246.963891
20
133.429250
11
246.289625
21
131.816250
0
LINE
8
Layer 1
10
246.289625
20
131.816250
11
245.329047
21
130.312375
0
LINE
8
Layer 1
10
245.329047
20
130.312375
11
244.311000
21
128.963000
0
LINE
8
Layer 1
10
244.311000
20
128.963000
11
242.496010
21
126.766682
0
LINE
8
Layer 1
10
242.496010
20
126.766682
11
240.543828
21
124.684891
0
LINE
8
Layer 1
10
240.543828
20
124.684891
11
238.470264
21
122.714873
0
LINE
8
Layer 1
10
238.470264
20
122.714873
11
236.291125
21
120.853875
0
LINE
8
Layer 1
10
236.291125
20
120.853875
11
231.679359
21
117.447922
0
LINE
8
Layer 1
10
231.679359
20
117.447922
11
226.835000
21
114.445000
0
LINE
8
Layer 1
10
226.835000
20
114.445000
11
220.402375
21
111.061250
0
LINE
8
Layer 1
10
220.402375
20
111.061250
11
217.252391
21
109.282094
0
LINE
8
Layer 1
10
217.252391
20
109.282094
11
214.251000
21
107.199000
0
LINE
8
Layer 1
10
214.251000
20
107.199000
11
213.152000
21
106.315000
0
LINE
8
Layer 1
10
213.152000
20
106.315000
11
212.161000
21
105.317000
0
LINE
8
Layer 1
10
212.161000
20
105.317000
11
211.676125
21
104.521500
0
LINE
8
Layer 1
10
211.676125
20
104.521500
11
211.552000
21
103.609000
0
LINE
8
Layer 1
10
211.552000
20
103.609000
11
211.829375
21
102.870125
0
LINE
8
Layer 1
10
211.829375
20
102.870125
11
212.361000
21
102.288000
0
LINE
8
Layer 1
10
212.361000
20
102.288000
11
213.312797
21
101.999922
0
LINE
8
Layer 1
10
213.312797
20
101.999922
11
214.528125
21
102.069875
0
LINE
8
Layer 1
10
214.528125
20
102.069875
11
216.783000
21
102.526000
0
LINE
8
Layer 1
10
216.783000
20
102.526000
11
218.463000
21
102.744703
0
LINE
8
Layer 1
10
218.463000
20
102.744703
11
220.176000
21
102.752375
0
LINE
8
Layer 1
10
220.176000
20
102.752375
11
221.832000
21
102.429109
0
LINE
8
Layer 1
10
221.832000
20
102.429109
11
223.341000
21
101.655000
0
LINE
8
Layer 1
10
223.341000
20
101.655000
11
224.291531
21
100.775817
0
LINE
8
Layer 1
10
224.291531
20
100.775817
11
225.027000
21
99.727763
0
LINE
8
Layer 1
10
225.027000
20
99.727763
11
225.543469
21
98.552827
0
LINE
8
Layer 1
10
225.543469
20
98.552827
11
225.837000
21
97.293000
0
LINE
8
Layer 1
10
225.837000
20
97.293000
11
225.837250
21
95.247603
0
LINE
8
Layer 1
10
225.837250
20
95.247603
11
225.338750
21
93.266500
0
LINE
8
Layer 1
10
225.338750
20
93.266500
11
224.461125
21
91.401797
0
LINE
8
Layer 1
10
224.461125
20
91.401797
11
223.324000
21
89.705600
0
LINE
8
Layer 1
10
223.324000
20
89.705600
11
221.806938
21
87.943803
0
LINE
8
Layer 1
10
221.806938
20
87.943803
11
220.145500
21
86.357900
0
LINE
8
Layer 1
10
220.145500
20
86.357900
11
216.502000
21
83.519600
0
LINE
8
Layer 1
10
216.502000
20
83.519600
11
212.310551
21
80.820724
0
LINE
8
Layer 1
10
212.310551
20
80.820724
11
207.939969
21
78.537002
0
LINE
8
Layer 1
10
207.939969
20
78.537002
11
203.416527
21
76.625394
0
LINE
8
Layer 1
10
203.416527
20
76.625394
11
198.766500
21
75.042863
0
LINE
8
Layer 1
10
198.766500
20
75.042863
11
194.016160
21
73.746367
0
LINE
8
Layer 1
10
194.016160
20
73.746367
11
189.191781
21
72.692867
0
LINE
8
Layer 1
10
189.191781
20
72.692867
11
184.319637
21
71.839325
0
LINE
8
Layer 1
10
184.319637
20
71.839325
11
179.426000
21
71.142700
0
LINE
8
Layer 1
10
179.426000
20
71.142700
11
176.646000
21
70.688513
0
LINE
8
Layer 1
10
176.646000
20
70.688513
11
175.321156
21
70.176030
0
LINE
8
Layer 1
10
175.321156
20
70.176030
11
174.763699
21
69.794994
0
LINE
8
Layer 1
10
174.763699
20
69.794994
11
174.310000
21
69.310400
0
LINE
8
Layer 1
10
174.310000
20
69.310400
11
173.820375
21
68.393338
0
LINE
8
Layer 1
10
173.820375
20
68.393338
11
173.700391
21
67.881186
0
LINE
8
Layer 1
10
173.700391
20
67.881186
11
173.720000
21
67.372100
0
LINE
8
Layer 1
10
173.720000
20
67.372100
11
173.976076
21
66.748910
0
LINE
8
Layer 1
10
173.976076
20
66.748910
11
174.431547
21
66.210677
0
LINE
8
Layer 1
10
174.431547
20
66.210677
11
175.738125
21
65.332012
0
LINE
8
Layer 1
10
175.738125
20
65.332012
11
178.516000
21
63.966400
0
LINE
8
Layer 1
10
178.516000
20
63.966400
11
179.990625
21
62.836650
0
LINE
8
Layer 1
10
179.990625
20
62.836650
11
180.600766
21
62.109953
0
LINE
8
Layer 1
10
180.600766
20
62.109953
11
180.929000
21
61.307900
0
LINE
8
Layer 1
10
180.929000
20
61.307900
11
180.924004
21
60.733347
0
LINE
8
Layer 1
10
180.924004
20
60.733347
11
180.741844
21
60.170292
0
LINE
8
Layer 1
10
180.741844
20
60.170292
11
179.995000
21
59.112737
0
LINE
8
Layer 1
10
179.995000
20
59.112737
11
178.986406
21
58.203364
0
LINE
8
Layer 1
10
178.986406
20
58.203364
11
178.014000
21
57.510300
0
LINE
8
Layer 1
10
178.014000
20
57.510300
11
175.605641
21
56.191056
0
LINE
8
Layer 1
10
175.605641
20
56.191056
11
173.014375
21
55.167125
0
LINE
8
Layer 1
10
173.014375
20
55.167125
11
167.690000
21
53.600800
0
LINE
8
Layer 1
10
167.690000
20
53.600800
11
163.105977
21
52.301853
0
LINE
8
Layer 1
10
163.105977
20
52.301853
11
158.930000
21
50.997655
0
LINE
8
Layer 1
10
158.930000
20
50.997655
11
155.092461
21
49.570707
0
LINE
8
Layer 1
10
155.092461
20
49.570707
11
151.523750
21
47.903513
0
LINE
8
Layer 1
10
151.523750
20
47.903513
11
148.154258
21
45.878572
0
LINE
8
Layer 1
10
148.154258
20
45.878572
11
144.914375
21
43.378389
0
LINE
8
Layer 1
10
144.914375
20
43.378389
11
141.734492
21
40.285464
0
LINE
8
Layer 1
10
141.734492
20
40.285464
11
138.545000
21
36.482300
0
LINE
8
Layer 1
10
138.545000
20
36.482300
11
138.146000
21
44.612700
0
LINE
8
Layer 1
10
138.146000
20
44.612700
11
137.936250
21
47.426475
0
LINE
8
Layer 1
10
137.936250
20
47.426475
11
137.914812
21
48.852937
0
LINE
8
Layer 1
10
137.914812
20
48.852937
11
138.055000
21
50.219400
0
LINE
8
Layer 1
10
138.055000
20
50.219400
11
138.843719
21
52.423067
0
LINE
8
Layer 1
10
138.843719
20
52.423067
11
140.254000
21
55.234188
0
LINE
8
Layer 1
10
140.254000
20
55.234188
11
143.038000
21
60.292400
0
LINE
8
Layer 1
10
143.038000
20
60.292400
11
145.352250
21
64.752437
0
LINE
8
Layer 1
10
145.352250
20
64.752437
11
146.652062
21
66.964311
0
LINE
8
Layer 1
10
146.652062
20
66.964311
11
148.058000
21
68.928900
0
LINE
8
Layer 1
10
148.058000
20
68.928900
11
149.746297
21
70.684964
0
LINE
8
Layer 1
10
149.746297
20
70.684964
11
151.690625
21
72.292462
0
LINE
8
Layer 1
10
151.690625
20
72.292462
11
155.741000
21
75.186300
0
LINE
8
Layer 1
10
155.741000
20
75.186300
11
158.696826
21
77.170890
0
LINE
8
Layer 1
10
158.696826
20
77.170890
11
161.735422
21
78.986298
0
LINE
8
Layer 1
10
161.735422
20
78.986298
11
164.851338
21
80.640942
0
LINE
8
Layer 1
10
164.851338
20
80.640942
11
168.039125
21
82.143237
0
LINE
8
Layer 1
10
168.039125
20
82.143237
11
171.293334
21
83.501604
0
LINE
8
Layer 1
10
171.293334
20
83.501604
11
174.608516
21
84.724458
0
LINE
8
Layer 1
10
174.608516
20
84.724458
11
181.400000
21
86.797300
0
LINE
8
Layer 1
10
181.400000
20
86.797300
11
190.488344
21
89.007052
0
LINE
8
Layer 1
10
190.488344
20
89.007052
11
199.366500
21
91.247637
0
LINE
8
Layer 1
10
199.366500
20
91.247637
11
203.702910
21
92.619625
0
LINE
8
Layer 1
10
203.702910
20
92.619625
11
207.958156
21
94.287480
0
LINE
8
Layer 1
10
207.958156
20
94.287480
11
212.122699
21
96.347254
0
LINE
8
Layer 1
10
212.122699
20
96.347254
11
216.187000
21
98.895000
0
LINE
8
Layer 1
10
216.187000
20
98.895000
11
209.696500
21
96.379625
0
LINE
8
Layer 1
10
209.696500
20
96.379625
11
206.417500
21
95.259366
0
LINE
8
Layer 1
10
206.417500
20
95.259366
11
203.053000
21
94.277500
0
LINE
8
Layer 1
10
203.053000
20
94.277500
11
194.651906
21
92.297623
0
LINE
8
Layer 1
10
194.651906
20
92.297623
11
186.192500
21
90.468637
0
LINE
8
Layer 1
10
186.192500
20
90.468637
11
177.808844
21
88.381333
0
LINE
8
Layer 1
10
177.808844
20
88.381333
11
173.687316
21
87.112933
0
LINE
8
Layer 1
10
173.687316
20
87.112933
11
169.635000
21
85.626500
0
LINE
8
Layer 1
10
169.635000
20
85.626500
11
164.743266
21
83.441530
0
LINE
8
Layer 1
10
164.743266
20
83.441530
11
160.305375
21
81.039312
0
LINE
8
Layer 1
10
160.305375
20
81.039312
11
156.035297
21
78.361714
0
LINE
8
Layer 1
10
156.035297
20
78.361714
11
151.647000
21
75.350600
0
LINE
8
Layer 1
10
151.647000
20
75.350600
11
156.982375
21
82.929025
0
LINE
8
Layer 1
10
156.982375
20
82.929025
11
162.623000
21
90.285000
0
LINE
8
Layer 1
10
162.623000
20
90.285000
11
168.423000
21
97.459450
0
LINE
8
Layer 1
10
168.423000
20
97.459450
11
174.409000
21
104.479000
0
LINE
8
Layer 1
10
174.409000
20
104.479000
11
180.578000
21
111.338750
0
LINE
8
Layer 1
10
180.578000
20
111.338750
11
186.925000
21
118.034000
0
LINE
8
Layer 1
10
186.925000
20
118.034000
11
191.063125
21
118.129125
0
LINE
8
Layer 1
10
191.063125
20
118.129125
11
195.196000
21
118.393000
0
LINE
8
Layer 1
10
195.196000
20
118.393000
11
200.336150
21
118.870463
0
LINE
8
Layer 1
10
200.336150
20
118.870463
11
205.735203
21
119.619953
0
LINE
8
Layer 1
10
205.735203
20
119.619953
11
211.242561
21
120.700498
0
LINE
8
Layer 1
10
211.242561
20
120.700498
11
216.707625
21
122.171125
0
LINE
8
Layer 1
10
216.707625
20
122.171125
11
221.979799
21
124.090861
0
LINE
8
Layer 1
10
221.979799
20
124.090861
11
224.496490
21
125.237592
0
LINE
8
Layer 1
10
224.496490
20
125.237592
11
226.908484
21
126.518734
0
LINE
8
Layer 1
10
226.908484
20
126.518734
11
229.196957
21
127.941668
0
LINE
8
Layer 1
10
229.196957
20
127.941668
11
231.343084
21
129.513771
0
LINE
8
Layer 1
10
231.343084
20
129.513771
11
233.328040
21
131.242423
0
LINE
8
Layer 1
10
233.328040
20
131.242423
11
235.133000
21
133.135000
0
LINE
8
Layer 1
10
235.133000
20
133.135000
11
231.583002
21
130.775793
0
LINE
8
Layer 1
10
231.583002
20
130.775793
11
227.957828
21
128.742906
0
LINE
8
Layer 1
10
227.957828
20
128.742906
11
224.252334
21
127.005191
0
LINE
8
Layer 1
10
224.252334
20
127.005191
11
220.461375
21
125.531500
0
LINE
8
Layer 1
10
220.461375
20
125.531500
11
216.579807
21
124.290684
0
LINE
8
Layer 1
10
216.579807
20
124.290684
11
212.602484
21
123.251594
0
LINE
8
Layer 1
10
212.602484
20
123.251594
11
208.524264
21
122.383082
0
LINE
8
Layer 1
10
208.524264
20
122.383082
11
204.340000
21
121.654000
0
LINE
8
Layer 1
10
204.340000
20
121.654000
11
196.723625
21
120.670875
0
LINE
8
Layer 1
10
196.723625
20
120.670875
11
192.888766
21
120.373891
0
LINE
8
Layer 1
10
192.888766
20
120.373891
11
189.057000
21
120.239000
0
LINE
8
Layer 1
10
189.057000
20
120.239000
11
193.048750
21
124.684875
0
LINE
8
Layer 1
10
193.048750
20
124.684875
11
197.213000
21
128.971000
0
LINE
8
Layer 1
10
197.213000
20
128.971000
11
202.346250
21
134.220750
0
LINE
8
Layer 1
10
202.346250
20
134.220750
11
207.622000
21
139.322000
0
LINE
8
Layer 1
10
207.622000
20
139.322000
11
210.628109
21
139.100219
0
LINE
8
Layer 1
10
210.628109
20
139.100219
11
213.627375
21
139.100250
0
LINE
8
Layer 1
10
213.627375
20
139.100250
11
216.620453
21
139.305406
0
LINE
8
Layer 1
10
216.620453
20
139.305406
11
219.608000
21
139.699000
0
LINE
8
Layer 1
10
219.608000
20
139.699000
11
222.982357
21
140.354191
0
LINE
8
Layer 1
10
222.982357
20
140.354191
11
226.385484
21
141.250906
0
LINE
8
Layer 1
10
226.385484
20
141.250906
11
229.753338
21
142.403605
0
LINE
8
Layer 1
10
229.753338
20
142.403605
11
233.021875
21
143.826750
0
LINE
8
Layer 1
10
233.021875
20
143.826750
11
236.127053
21
145.534801
0
LINE
8
Layer 1
10
236.127053
20
145.534801
11
239.004828
21
147.542219
0
LINE
8
Layer 1
10
239.004828
20
147.542219
11
241.591158
21
149.863465
0
LINE
8
Layer 1
10
241.591158
20
149.863465
11
243.822000
21
152.513000
0
LINE
8
Layer 1
10
243.822000
20
152.513000
11
241.111508
21
150.237701
0
LINE
8
Layer 1
10
241.111508
20
150.237701
11
238.238687
21
148.218047
0
LINE
8
Layer 1
10
238.238687
20
148.218047
11
235.219898
21
146.455525
0
LINE
8
Layer 1
10
235.219898
20
146.455525
11
232.071500
21
144.951625
0
LINE
8
Layer 1
10
232.071500
20
144.951625
11
228.809852
21
143.707834
0
LINE
8
Layer 1
10
228.809852
20
143.707834
11
225.451313
21
142.725641
0
LINE
8
Layer 1
10
225.451313
20
142.725641
11
222.012242
21
142.006533
0
LINE
8
Layer 1
10
222.012242
20
142.006533
11
218.509000
21
141.552000
0
LINE
8
Layer 1
10
218.509000
20
141.552000
11
214.106125
21
141.337875
0
LINE
8
Layer 1
10
214.106125
20
141.337875
11
209.695000
21
141.309000
0
LINE
8
Layer 1
10
209.695000
20
141.309000
11
220.260000
21
151.295750
0
LINE
8
Layer 1
10
220.260000
20
151.295750
11
230.689000
21
161.424000
0
LINE
8
Layer 1
10
230.689000
20
161.424000
11
236.644625
21
167.249250
0
LINE
8
Layer 1
10
236.644625
20
167.249250
11
239.555547
21
170.309250
0
LINE
8
Layer 1
10
239.555547
20
170.309250
11
242.166000
21
173.430000
0
LINE
8
Layer 1
10
242.166000
20
173.430000
11
237.585000
21
169.529375
0
LINE
8
Layer 1
10
237.585000
20
169.529375
11
233.085000
21
165.523000
0
LINE
8
Layer 1
10
233.085000
20
165.523000
11
221.014750
21
155.149250
0
LINE
8
Layer 1
10
221.014750
20
155.149250
11
209.090000
21
144.610000
0
LINE
8
Layer 1
10
209.090000
20
144.610000
11
209.211000
21
146.535000
0
LINE
8
Layer 1
10
209.211000
20
146.535000
11
209.392000
21
148.455000
0
LINE
8
Layer 1
10
209.392000
20
148.455000
11
209.632000
21
150.369000
0
LINE
8
Layer 1
10
209.632000
20
150.369000
11
209.932000
21
152.275000
0
LINE
8
Layer 1
10
209.932000
20
152.275000
11
210.290000
21
154.170000
0
LINE
8
Layer 1
10
210.290000
20
154.170000
11
210.706000
21
156.053000
0
LINE
8
Layer 1
10
210.706000
20
156.053000
11
211.180000
21
157.923000
0
LINE
8
Layer 1
10
211.180000
20
157.923000
11
211.712000
21
159.777000
0
LINE
8
Layer 1
10
211.712000
20
159.777000
11
212.301000
21
161.614000
0
LINE
8
Layer 1
10
212.301000
20
161.614000
11
212.946000
21
163.432000
0
LINE
8
Layer 1
10
212.946000
20
163.432000
11
213.647000
21
165.229000
0
LINE
8
Layer 1
10
213.647000
20
165.229000
11
214.403000
21
167.003000
0
LINE
8
Layer 1
10
214.403000
20
167.003000
11
215.214000
21
168.754000
0
LINE
8
Layer 1
10
215.214000
20
168.754000
11
216.078000
21
170.478000
0
LINE
8
Layer 1
10
216.078000
20
170.478000
11
216.996000
21
172.175000
0
LINE
8
Layer 1
10
216.996000
20
172.175000
11
217.965000
21
173.843000
0
LINE
8
Layer 1
10
217.965000
20
173.843000
11
217.811000
21
173.707000
0
LINE
8
Layer 1
10
217.811000
20
173.707000
11
216.410031
21
172.302141
0
LINE
8
Layer 1
10
216.410031
20
172.302141
11
215.172750
21
170.757125
0
LINE
8
Layer 1
10
215.172750
20
170.757125
11
213.064000
21
167.397000
0
LINE
8
Layer 1
10
213.064000
20
167.397000
11
211.558299
21
164.415729
0
LINE
8
Layer 1
10
211.558299
20
164.415729
11
210.311641
21
161.381641
0
LINE
8
Layer 1
10
210.311641
20
161.381641
11
209.297693
21
158.296576
0
LINE
8
Layer 1
10
209.297693
20
158.296576
11
208.490125
21
155.162375
0
LINE
8
Layer 1
10
208.490125
20
155.162375
11
207.862604
21
151.980877
0
LINE
8
Layer 1
10
207.862604
20
151.980877
11
207.388797
21
148.753922
0
LINE
8
Layer 1
10
207.388797
20
148.753922
11
206.797000
21
142.171000
0
LINE
8
Layer 1
10
206.797000
20
142.171000
11
200.033875
21
135.869625
0
LINE
8
Layer 1
10
200.033875
20
135.869625
11
193.564000
21
129.266000
0
LINE
8
Layer 1
10
193.564000
20
129.266000
11
193.431000
21
131.286000
0
LINE
8
Layer 1
10
193.431000
20
131.286000
11
193.349000
21
133.308000
0
LINE
8
Layer 1
10
193.349000
20
133.308000
11
193.319000
21
135.331000
0
LINE
8
Layer 1
10
193.319000
20
135.331000
11
193.342000
21
137.355000
0
LINE
8
Layer 1
10
193.342000
20
137.355000
11
193.417000
21
139.377000
0
LINE
8
Layer 1
10
193.417000
20
139.377000
11
193.543000
21
141.396000
0
LINE
8
Layer 1
10
193.543000
20
141.396000
11
193.721000
21
143.412000
0
LINE
8
Layer 1
10
193.721000
20
143.412000
11
193.951000
21
145.423000
0
LINE
8
Layer 1
10
193.951000
20
145.423000
11
194.233000
21
147.427000
0
LINE
8
Layer 1
10
194.233000
20
147.427000
11
194.566000
21
149.423000
0
LINE
8
Layer 1
10
194.566000
20
149.423000
11
194.950000
21
151.409000
0
LINE
8
Layer 1
10
194.950000
20
151.409000
11
195.385000
21
153.386000
0
LINE
8
Layer 1
10
195.385000
20
153.386000
11
195.871000
21
155.350000
0
LINE
8
Layer 1
10
195.871000
20
155.350000
11
196.407000
21
157.302000
0
LINE
8
Layer 1
10
196.407000
20
157.302000
11
196.993000
21
159.239000
0
LINE
8
Layer 1
10
196.993000
20
159.239000
11
197.628000
21
161.160000
0
LINE
8
Layer 1
10
197.628000
20
161.160000
11
198.865125
21
164.227625
0
LINE
8
Layer 1
10
198.865125
20
164.227625
11
200.157000
21
167.275000
0
LINE
8
Layer 1
10
200.157000
20
167.275000
11
198.685000
21
165.037000
0
LINE
8
Layer 1
10
198.685000
20
165.037000
11
196.755846
21
161.616520
0
LINE
8
Layer 1
10
196.755846
20
161.616520
11
195.149578
21
158.043906
0
LINE
8
Layer 1
10
195.149578
20
158.043906
11
193.845865
21
154.346652
0
LINE
8
Layer 1
10
193.845865
20
154.346652
11
192.824375
21
150.552250
0
LINE
8
Layer 1
10
192.824375
20
150.552250
11
192.064775
21
146.688191
0
LINE
8
Layer 1
10
192.064775
20
146.688191
11
191.546734
21
142.781969
0
LINE
8
Layer 1
10
191.546734
20
142.781969
11
191.249920
21
138.861074
0
LINE
8
Layer 1
10
191.249920
20
138.861074
11
191.154000
21
134.953000
0
LINE
8
Layer 1
10
191.154000
20
134.953000
11
191.188000
21
131.160375
0
LINE
8
Layer 1
10
191.188000
20
131.160375
11
191.328937
21
129.262891
0
LINE
8
Layer 1
10
191.328937
20
129.262891
11
191.639000
21
127.406000
0
LINE
8
Layer 1
10
191.639000
20
127.406000
11
184.049000
21
119.421000
0
LINE
8
Layer 1
10
184.049000
20
119.421000
11
177.495500
21
112.442750
0
LINE
8
Layer 1
10
177.495500
20
112.442750
11
171.121000
21
105.300000
0
LINE
8
Layer 1
10
171.121000
20
105.300000
11
164.929500
21
97.997700
0
LINE
8
Layer 1
10
164.929500
20
97.997700
11
158.925000
21
90.540600
0
LINE
8
Layer 1
10
158.925000
20
90.540600
11
156.134000
21
87.004525
0
LINE
8
Layer 1
10
156.134000
20
87.004525
11
153.433000
21
83.403200
0
LINE
8
Layer 1
10
153.433000
20
83.403200
11
148.494250
21
76.008900
0
LINE
8
Layer 1
10
148.494250
20
76.008900
11
143.850000
21
68.426200
0
LINE
8
Layer 1
10
143.850000
20
68.426200
11
137.749000
21
57.517400
0
LINE
8
Layer 1
10
137.749000
20
57.517400
11
137.721750
21
61.962675
0
LINE
8
Layer 1
10
137.721750
20
61.962675
11
137.591000
21
66.409300
0
LINE
8
Layer 1
10
137.591000
20
66.409300
11
137.181000
21
84.595700
0
LINE
8
Layer 1
10
137.181000
20
84.595700
11
136.945250
21
88.333525
0
LINE
8
Layer 1
10
136.945250
20
88.333525
11
136.905094
21
90.230544
0
LINE
8
Layer 1
10
136.905094
20
90.230544
11
137.098000
21
92.034900
0
LINE
8
Layer 1
10
137.098000
20
92.034900
11
137.748734
21
93.989302
0
LINE
8
Layer 1
10
137.748734
20
93.989302
11
138.841125
21
96.375188
0
LINE
8
Layer 1
10
138.841125
20
96.375188
11
141.116000
21
100.680000
0
LINE
8
Layer 1
10
141.116000
20
100.680000
11
142.421000
21
102.977000
0
LINE
8
Layer 1
10
142.421000
20
102.977000
11
143.810000
21
105.222000
0
LINE
8
Layer 1
10
143.810000
20
105.222000
11
145.282000
21
107.415000
0
LINE
8
Layer 1
10
145.282000
20
107.415000
11
146.835000
21
109.551000
0
LINE
8
Layer 1
10
146.835000
20
109.551000
11
148.466000
21
111.628000
0
LINE
8
Layer 1
10
148.466000
20
111.628000
11
150.173000
21
113.643000
0
LINE
8
Layer 1
10
150.173000
20
113.643000
11
151.955000
21
115.593000
0
LINE
8
Layer 1
10
151.955000
20
115.593000
11
153.807000
21
117.475000
0
LINE
8
Layer 1
10
153.807000
20
117.475000
11
157.621000
21
120.865750
0
LINE
8
Layer 1
10
157.621000
20
120.865750
11
161.570000
21
124.099000
0
LINE
8
Layer 1
10
161.570000
20
124.099000
11
166.566109
21
128.459453
0
LINE
8
Layer 1
10
166.566109
20
128.459453
11
168.915564
21
130.774451
0
LINE
8
Layer 1
10
168.915564
20
130.774451
11
171.112125
21
133.209625
0
LINE
8
Layer 1
10
171.112125
20
133.209625
11
173.115420
21
135.787721
0
LINE
8
Layer 1
10
173.115420
20
135.787721
11
174.885078
21
138.531484
0
LINE
8
Layer 1
10
174.885078
20
138.531484
11
176.380729
21
141.463662
0
LINE
8
Layer 1
10
176.380729
20
141.463662
11
177.562000
21
144.607000
0
LINE
8
Layer 1
10
177.562000
20
144.607000
11
174.529734
21
139.973813
0
LINE
8
Layer 1
10
174.529734
20
139.973813
11
171.096125
21
135.709250
0
LINE
8
Layer 1
10
171.096125
20
135.709250
11
167.284703
21
131.769063
0
LINE
8
Layer 1
10
167.284703
20
131.769063
11
163.119000
21
128.109000
0
LINE
8
Layer 1
10
163.119000
20
128.109000
11
155.696500
21
122.195500
0
LINE
8
Layer 1
10
155.696500
20
122.195500
11
152.186813
21
119.164687
0
LINE
8
Layer 1
10
152.186813
20
119.164687
11
148.700000
21
115.688000
0
LINE
8
Layer 1
10
148.700000
20
115.688000
11
146.067594
21
112.609797
0
LINE
8
Layer 1
10
146.067594
20
112.609797
11
143.619500
21
109.315125
0
LINE
8
Layer 1
10
143.619500
20
109.315125
11
141.377656
21
105.873641
0
LINE
8
Layer 1
10
141.377656
20
105.873641
11
139.364000
21
102.355000
0
LINE
8
Layer 1
10
139.364000
20
102.355000
11
136.851000
21
97.289000
0
LINE
8
Layer 1
10
136.851000
20
97.289000
11
136.767000
21
97.138700
0
LINE
8
Layer 1
10
136.767000
20
97.138700
11
136.306000
21
108.765000
0
LINE
8
Layer 1
10
136.306000
20
108.765000
11
136.102750
21
112.794625
0
LINE
8
Layer 1
10
136.102750
20
112.794625
11
136.076219
21
114.823828
0
LINE
8
Layer 1
10
136.076219
20
114.823828
11
136.204000
21
116.807000
0
LINE
8
Layer 1
10
136.204000
20
116.807000
11
136.687625
21
119.455250
0
LINE
8
Layer 1
10
136.687625
20
119.455250
11
137.325000
21
122.075000
0
LINE
8
Layer 1
10
137.325000
20
122.075000
11
138.388523
21
126.015445
0
LINE
8
Layer 1
10
138.388523
20
126.015445
11
139.681688
21
129.899313
0
LINE
8
Layer 1
10
139.681688
20
129.899313
11
141.208008
21
133.702648
0
LINE
8
Layer 1
10
141.208008
20
133.702648
11
142.971000
21
137.401500
0
LINE
8
Layer 1
10
142.971000
20
137.401500
11
144.974180
21
140.971914
0
LINE
8
Layer 1
10
144.974180
20
140.971914
11
147.221062
21
144.389938
0
LINE
8
Layer 1
10
147.221062
20
144.389938
11
149.715164
21
147.631617
0
LINE
8
Layer 1
10
149.715164
20
147.631617
11
152.460000
21
150.673000
0
LINE
8
Layer 1
10
152.460000
20
150.673000
11
155.012775
21
153.000438
0
LINE
8
Layer 1
10
155.012775
20
153.000438
11
157.953078
21
155.331063
0
LINE
8
Layer 1
10
157.953078
20
155.331063
11
164.183125
21
160.171750
0
LINE
8
Layer 1
10
164.183125
20
160.171750
11
167.066299
21
162.766750
0
LINE
8
Layer 1
10
167.066299
20
162.766750
11
169.523859
21
165.534813
0
LINE
8
Layer 1
10
169.523859
20
165.534813
11
170.529508
21
166.997014
0
LINE
8
Layer 1
10
170.529508
20
166.997014
11
171.352521
21
168.518406
0
LINE
8
Layer 1
10
171.352521
20
168.518406
11
171.967489
21
170.104299
0
LINE
8
Layer 1
10
171.967489
20
170.104299
11
172.349000
21
171.760000
0
LINE
8
Layer 1
10
172.349000
20
171.760000
11
171.136850
21
169.705346
0
LINE
8
Layer 1
10
171.136850
20
169.705346
11
169.832109
21
167.896141
0
LINE
8
Layer 1
10
169.832109
20
167.896141
11
168.433596
21
166.283271
0
LINE
8
Layer 1
10
168.433596
20
166.283271
11
166.940125
21
164.817625
0
LINE
8
Layer 1
10
166.940125
20
164.817625
11
163.663578
21
162.131547
0
LINE
8
Layer 1
10
163.663578
20
162.131547
11
159.993000
21
159.445000
0
LINE
8
Layer 1
10
159.993000
20
159.445000
11
155.573000
21
156.134250
0
LINE
8
Layer 1
10
155.573000
20
156.134250
11
151.369000
21
152.558000
0
LINE
8
Layer 1
10
151.369000
20
152.558000
11
148.477684
21
149.601170
0
LINE
8
Layer 1
10
148.477684
20
149.601170
11
145.874531
21
146.447922
0
LINE
8
Layer 1
10
145.874531
20
146.447922
11
143.543113
21
143.117369
0
LINE
8
Layer 1
10
143.543113
20
143.117369
11
141.467000
21
139.628625
0
LINE
8
Layer 1
10
141.467000
20
139.628625
11
139.629762
21
136.000803
0
LINE
8
Layer 1
10
139.629762
20
136.000803
11
138.014969
21
132.253016
0
LINE
8
Layer 1
10
138.014969
20
132.253016
11
136.606191
21
128.404377
0
LINE
8
Layer 1
10
136.606191
20
128.404377
11
135.387000
21
124.474000
0
LINE
8
Layer 1
10
135.387000
20
124.474000
11
135.176875
21
128.398250
0
LINE
8
Layer 1
10
135.176875
20
128.398250
11
134.894000
21
132.321000
0
LINE
8
Layer 1
10
134.894000
20
132.321000
11
134.221000
21
145.070000
0
LINE
8
Layer 1
10
134.221000
20
145.070000
11
133.907875
21
149.156000
0
LINE
8
Layer 1
10
133.907875
20
149.156000
11
133.803484
21
151.261437
0
LINE
8
Layer 1
10
133.803484
20
151.261437
11
133.846000
21
153.200000
0
LINE
8
Layer 1
10
133.846000
20
153.200000
11
134.054078
21
154.504547
0
LINE
8
Layer 1
10
134.054078
20
154.504547
11
134.416375
21
155.836375
0
LINE
8
Layer 1
10
134.416375
20
155.836375
11
135.256000
21
158.427000
0
LINE
8
Layer 1
10
135.256000
20
158.427000
11
136.396494
21
161.866301
0
LINE
8
Layer 1
10
136.396494
20
161.866301
11
137.694078
21
165.128531
0
LINE
8
Layer 1
10
137.694078
20
165.128531
11
139.157904
21
168.236684
0
LINE
8
Layer 1
10
139.157904
20
168.236684
11
140.797125
21
171.213750
0
LINE
8
Layer 1
10
140.797125
20
171.213750
11
142.620893
21
174.082723
0
LINE
8
Layer 1
10
142.620893
20
174.082723
11
144.638359
21
176.866594
0
LINE
8
Layer 1
10
144.638359
20
176.866594
11
146.858678
21
179.588355
0
LINE
8
Layer 1
10
146.858678
20
179.588355
11
149.291000
21
182.271000
0
LINE
8
Layer 1
10
149.291000
20
182.271000
11
153.312078
21
186.420047
0
LINE
8
Layer 1
10
153.312078
20
186.420047
11
157.321625
21
190.681875
0
LINE
8
Layer 1
10
157.321625
20
190.681875
11
161.033609
21
195.173766
0
LINE
8
Layer 1
10
161.033609
20
195.173766
11
162.688631
21
197.542635
0
LINE
8
Layer 1
10
162.688631
20
197.542635
11
164.162000
21
200.013000
0
LINE
8
Layer 1
10
164.162000
20
200.013000
11
165.367984
21
202.510672
0
LINE
8
Layer 1
10
165.367984
20
202.510672
11
166.282125
21
205.073125
0
LINE
8
Layer 1
10
166.282125
20
205.073125
11
166.873953
21
207.725016
0
LINE
8
Layer 1
10
166.873953
20
207.725016
11
167.113000
21
210.491000
0
LINE
8
Layer 1
10
167.113000
20
210.491000
11
167.128750
21
211.652625
0
LINE
8
Layer 1
10
167.128750
20
211.652625
11
166.984000
21
212.794000
0
LINE
8
Layer 1
10
166.984000
20
212.794000
11
166.881000
21
212.823000
0
LINE
8
Layer 1
10
166.881000
20
212.823000
11
166.568788
21
209.997272
0
LINE
8
Layer 1
10
166.568788
20
209.997272
11
165.906316
21
207.283430
0
LINE
8
Layer 1
10
165.906316
20
207.283430
11
164.930773
21
204.671856
0
LINE
8
Layer 1
10
164.930773
20
204.671856
11
163.679344
21
202.152938
0
LINE
8
Layer 1
10
163.679344
20
202.152938
11
162.189215
21
199.717058
0
LINE
8
Layer 1
10
162.189215
20
199.717058
11
160.497574
21
197.354602
0
LINE
8
Layer 1
10
160.497574
20
197.354602
11
156.658500
21
192.811500
0
LINE
8
Layer 1
10
156.658500
20
192.811500
11
152.459613
21
188.446711
0
LINE
8
Layer 1
10
152.459613
20
188.446711
11
148.198406
21
184.183312
0
LINE
8
Layer 1
10
148.198406
20
184.183312
11
144.172371
21
179.944383
0
LINE
8
Layer 1
10
144.172371
20
179.944383
11
142.340509
21
177.810056
0
LINE
8
Layer 1
10
142.340509
20
177.810056
11
140.679000
21
175.653000
0
LINE
8
Layer 1
10
140.679000
20
175.653000
11
139.148000
21
173.367000
0
LINE
8
Layer 1
10
139.148000
20
173.367000
11
137.770000
21
170.985000
0
LINE
8
Layer 1
10
137.770000
20
170.985000
11
136.551000
21
168.518000
0
LINE
8
Layer 1
10
136.551000
20
168.518000
11
135.497000
21
165.977000
0
LINE
8
Layer 1
10
135.497000
20
165.977000
11
134.510250
21
163.093000
0
LINE
8
Layer 1
10
134.510250
20
163.093000
11
133.414000
21
160.260000
0
LINE
8
Layer 1
10
133.414000
20
160.260000
11
133.353000
21
160.133000
0
LINE
8
Layer 1
10
133.353000
20
160.133000
11
132.913031
21
169.229594
0
LINE
8
Layer 1
10
132.913031
20
169.229594
11
132.627000
21
178.320000
0
LINE
8
Layer 1
10
132.627000
20
178.320000
11
132.375000
21
196.519000
0
LINE
8
Layer 1
10
132.375000
20
196.519000
11
132.420000
21
201.251000
0
LINE
8
Layer 1
10
132.420000
20
201.251000
11
135.347375
21
204.466125
0
LINE
8
Layer 1
10
135.347375
20
204.466125
11
138.118000
21
207.829000
0
LINE
8
Layer 1
10
138.118000
20
207.829000
11
143.378000
21
214.185625
0
LINE
8
Layer 1
10
143.378000
20
214.185625
11
145.795000
21
217.414422
0
LINE
8
Layer 1
10
145.795000
20
217.414422
11
148.137000
21
220.966000
0
LINE
8
Layer 1
10
148.137000
20
220.966000
11
149.813000
21
223.943000
0
LINE
8
Layer 1
10
149.813000
20
223.943000
11
151.514500
21
227.661750
0
LINE
8
Layer 1
10
151.514500
20
227.661750
11
152.190828
21
229.600414
0
LINE
8
Layer 1
10
152.190828
20
229.600414
11
152.652750
21
231.485875
0
LINE
8
Layer 1
10
152.652750
20
231.485875
11
152.826672
21
233.238586
0
LINE
8
Layer 1
10
152.826672
20
233.238586
11
152.639000
21
234.779000
0
LINE
8
Layer 1
10
152.639000
20
234.779000
11
152.505875
21
235.166125
0
LINE
8
Layer 1
10
152.505875
20
235.166125
11
152.222000
21
235.446000
0
LINE
8
Layer 1
10
152.222000
20
235.446000
11
151.691547
21
234.527266
0
LINE
8
Layer 1
10
151.691547
20
234.527266
11
151.269375
21
233.070875
0
LINE
8
Layer 1
10
151.269375
20
233.070875
11
150.619000
21
230.359000
0
LINE
8
Layer 1
10
150.619000
20
230.359000
11
149.047625
21
226.568125
0
LINE
8
Layer 1
10
149.047625
20
226.568125
11
147.144000
21
222.931000
0
LINE
8
Layer 1
10
147.144000
20
222.931000
11
145.606971
21
220.421301
0
LINE
8
Layer 1
10
145.606971
20
220.421301
11
143.927266
21
217.981469
0
LINE
8
Layer 1
10
143.927266
20
217.981469
11
140.259125
21
213.269500
0
LINE
8
Layer 1
10
140.259125
20
213.269500
11
132.523000
21
204.223000
0
LINE
8
Layer 1
10
132.523000
20
204.223000
11
132.516750
21
208.014875
0
LINE
8
Layer 1
10
132.516750
20
208.014875
11
132.680000
21
211.821000
0
LINE
8
Layer 1
10
132.680000
20
211.821000
11
132.913984
21
218.002937
0
LINE
8
Layer 1
10
132.913984
20
218.002937
11
133.300875
21
224.186000
0
LINE
8
Layer 1
10
133.300875
20
224.186000
11
134.380000
21
236.521000
0
LINE
8
Layer 1
10
134.380000
20
236.521000
11
135.531000
21
247.849000
0
LINE
8
Layer 1
10
135.531000
20
247.849000
11
134.938625
21
245.835375
0
LINE
8
Layer 1
10
134.938625
20
245.835375
11
134.515000
21
243.749000
0
LINE
8
Layer 1
10
134.515000
20
243.749000
11
133.413904
21
239.025383
0
LINE
8
Layer 1
10
133.413904
20
239.025383
11
132.470859
21
234.212375
0
LINE
8
Layer 1
10
132.470859
20
234.212375
11
131.018375
21
224.413250
0
LINE
8
Layer 1
10
131.018375
20
224.413250
11
130.076453
21
214.541750
0
LINE
8
Layer 1
10
130.076453
20
214.541750
11
129.564000
21
204.788000
0
LINE
8
Layer 1
10
129.564000
20
204.788000
11
129.471000
21
204.880000
0
LINE
8
Layer 1
10
129.471000
20
204.880000
11
127.452500
21
207.297500
0
LINE
8
Layer 1
10
127.452500
20
207.297500
11
125.629000
21
209.874000
0
LINE
8
Layer 1
10
125.629000
20
209.874000
11
122.755297
21
213.927562
0
LINE
8
Layer 1
10
122.755297
20
213.927562
11
119.928375
21
218.213250
0
LINE
8
Layer 1
10
119.928375
20
218.213250
11
117.444766
21
222.681563
0
LINE
8
Layer 1
10
117.444766
20
222.681563
11
116.424369
21
224.968734
0
LINE
8
Layer 1
10
116.424369
20
224.968734
11
115.601000
21
227.283000
0
LINE
8
Layer 1
10
115.601000
20
227.283000
11
115.248406
21
228.723531
0
LINE
8
Layer 1
10
115.248406
20
228.723531
11
115.049000
21
230.162750
0
LINE
8
Layer 1
10
115.049000
20
230.162750
11
114.950000
21
233.095000
0
LINE
8
Layer 1
10
114.950000
20
233.095000
11
114.318000
21
231.169000
0
LINE
8
Layer 1
10
114.318000
20
231.169000
11
114.126127
21
229.737703
0
LINE
8
Layer 1
10
114.126127
20
229.737703
11
114.156922
21
228.218049
0
LINE
8
Layer 1
10
114.156922
20
228.218049
11
114.388506
21
226.625202
0
LINE
8
Layer 1
10
114.388506
20
226.625202
11
114.799000
21
224.974328
0
LINE
8
Layer 1
10
114.799000
20
224.974328
11
116.069203
21
221.559162
0
LINE
8
Layer 1
10
116.069203
20
221.559162
11
117.792500
21
218.093875
0
LINE
8
Layer 1
10
117.792500
20
218.093875
11
119.793859
21
214.699791
0
LINE
8
Layer 1
10
119.793859
20
214.699791
11
121.898250
21
211.498234
0
LINE
8
Layer 1
10
121.898250
20
211.498234
11
125.716000
21
206.158000
0
LINE
8
Layer 1
10
125.716000
20
206.158000
11
127.605625
21
203.687500
0
LINE
8
Layer 1
10
127.605625
20
203.687500
11
129.394000
21
201.151000
0
LINE
8
Layer 1
10
129.394000
20
201.151000
11
129.497000
21
200.982000
0
LINE
8
Layer 1
10
129.497000
20
200.982000
11
129.665000
21
175.872000
0
LINE
8
Layer 1
10
129.665000
20
175.872000
11
125.970984
21
178.632391
0
LINE
8
Layer 1
10
125.970984
20
178.632391
11
122.450500
21
181.544563
0
LINE
8
Layer 1
10
122.450500
20
181.544563
11
119.120516
21
184.622391
0
LINE
8
Layer 1
10
119.120516
20
184.622391
11
115.998000
21
187.879750
0
LINE
8
Layer 1
10
115.998000
20
187.879750
11
113.099922
21
191.330516
0
LINE
8
Layer 1
10
113.099922
20
191.330516
11
110.443250
21
194.988563
0
LINE
8
Layer 1
10
110.443250
20
194.988563
11
108.044953
21
198.867766
0
LINE
8
Layer 1
10
108.044953
20
198.867766
11
105.922000
21
202.982000
0
LINE
8
Layer 1
10
105.922000
20
202.982000
11
104.548500
21
206.031250
0
LINE
8
Layer 1
10
104.548500
20
206.031250
11
103.373000
21
209.160000
0
LINE
8
Layer 1
10
103.373000
20
209.160000
11
102.721000
21
211.539375
0
LINE
8
Layer 1
10
102.721000
20
211.539375
11
102.171000
21
213.945000
0
LINE
8
Layer 1
10
102.171000
20
213.945000
11
101.812891
21
212.774109
0
LINE
8
Layer 1
10
101.812891
20
212.774109
11
101.660375
21
211.605375
0
LINE
8
Layer 1
10
101.660375
20
211.605375
11
101.683172
21
210.424453
0
LINE
8
Layer 1
10
101.683172
20
210.424453
11
101.851000
21
209.217000
0
LINE
8
Layer 1
10
101.851000
20
209.217000
11
102.539609
21
206.451422
0
LINE
8
Layer 1
10
102.539609
20
206.451422
11
103.513875
21
203.692875
0
LINE
8
Layer 1
10
103.513875
20
203.692875
11
104.682203
21
201.004641
0
LINE
8
Layer 1
10
104.682203
20
201.004641
11
105.953000
21
198.450000
0
LINE
8
Layer 1
10
105.953000
20
198.450000
11
108.240064
21
194.410367
0
LINE
8
Layer 1
10
108.240064
20
194.410367
11
110.696828
21
190.692625
0
LINE
8
Layer 1
10
110.696828
20
190.692625
11
113.336146
21
187.253508
0
LINE
8
Layer 1
10
113.336146
20
187.253508
11
116.170875
21
184.049750
0
LINE
8
Layer 1
10
116.170875
20
184.049750
11
119.213869
21
181.038086
0
LINE
8
Layer 1
10
119.213869
20
181.038086
11
122.477984
21
178.175250
0
LINE
8
Layer 1
10
122.477984
20
178.175250
11
125.976076
21
175.417977
0
LINE
8
Layer 1
10
125.976076
20
175.417977
11
129.721000
21
172.723000
0
LINE
8
Layer 1
10
129.721000
20
172.723000
11
130.679000
21
154.720000
0
LINE
8
Layer 1
10
130.679000
20
154.720000
11
131.131375
21
147.217000
0
LINE
8
Layer 1
10
131.131375
20
147.217000
11
131.451000
21
139.708000
0
LINE
8
Layer 1
10
131.451000
20
139.708000
11
122.786000
21
145.829000
0
LINE
8
Layer 1
10
122.786000
20
145.829000
11
117.413922
21
149.686594
0
LINE
8
Layer 1
10
117.413922
20
149.686594
11
112.038375
21
153.830500
0
LINE
8
Layer 1
10
112.038375
20
153.830500
11
109.466342
21
156.041754
0
LINE
8
Layer 1
10
109.466342
20
156.041754
11
107.033891
21
158.362906
0
LINE
8
Layer 1
10
107.033891
20
158.362906
11
104.787838
21
160.806730
0
LINE
8
Layer 1
10
104.787838
20
160.806730
11
102.775000
21
163.386000
0
LINE
8
Layer 1
10
102.775000
20
163.386000
11
101.199962
21
165.806500
0
LINE
8
Layer 1
10
101.199962
20
165.806500
11
99.849700
21
168.359000
0
LINE
8
Layer 1
10
99.849700
20
168.359000
11
99.157238
21
169.982625
0
LINE
8
Layer 1
10
99.157238
20
169.982625
11
98.378300
21
171.559000
0
LINE
8
Layer 1
10
98.378300
20
171.559000
11
98.218800
21
171.581000
0
LINE
8
Layer 1
10
98.218800
20
171.581000
11
98.149975
21
170.537250
0
LINE
8
Layer 1
10
98.149975
20
170.537250
11
98.279600
21
169.492000
0
LINE
8
Layer 1
10
98.279600
20
169.492000
11
98.970863
21
167.066250
0
LINE
8
Layer 1
10
98.970863
20
167.066250
11
100.018000
21
164.768000
0
LINE
8
Layer 1
10
100.018000
20
164.768000
11
101.958162
21
161.453180
0
LINE
8
Layer 1
10
101.958162
20
161.453180
11
104.276359
21
158.359750
0
LINE
8
Layer 1
10
104.276359
20
158.359750
11
106.900908
21
155.466008
0
LINE
8
Layer 1
10
106.900908
20
155.466008
11
109.760125
21
152.750250
0
LINE
8
Layer 1
10
109.760125
20
152.750250
11
112.782326
21
150.190773
0
LINE
8
Layer 1
10
112.782326
20
150.190773
11
115.895828
21
147.765875
0
LINE
8
Layer 1
10
115.895828
20
147.765875
11
122.110000
21
143.233000
0
LINE
8
Layer 1
10
122.110000
20
143.233000
11
131.592000
21
136.471000
0
LINE
8
Layer 1
10
131.592000
20
136.471000
11
132.131625
21
130.632000
0
LINE
8
Layer 1
10
132.131625
20
130.632000
11
132.462000
21
124.769000
0
LINE
8
Layer 1
10
132.462000
20
124.769000
11
133.016500
21
116.437750
0
LINE
8
Layer 1
10
133.016500
20
116.437750
11
133.188469
21
112.265750
0
LINE
8
Layer 1
10
133.188469
20
112.265750
11
133.187000
21
108.096000
0
LINE
8
Layer 1
10
133.187000
20
108.096000
11
131.045402
21
112.435602
0
LINE
8
Layer 1
10
131.045402
20
112.435602
11
128.441219
21
116.559625
0
LINE
8
Layer 1
10
128.441219
20
116.559625
11
125.436488
21
120.454898
0
LINE
8
Layer 1
10
125.436488
20
120.454898
11
122.093250
21
124.108250
0
LINE
8
Layer 1
10
122.093250
20
124.108250
11
118.473543
21
127.506508
0
LINE
8
Layer 1
10
118.473543
20
127.506508
11
114.639406
21
130.636500
0
LINE
8
Layer 1
10
114.639406
20
130.636500
11
110.652879
21
133.485055
0
LINE
8
Layer 1
10
110.652879
20
133.485055
11
106.576000
21
136.039000
0
LINE
8
Layer 1
10
106.576000
20
136.039000
11
99.176100
21
140.240875
0
LINE
8
Layer 1
10
99.176100
20
140.240875
11
95.658634
21
142.565547
0
LINE
8
Layer 1
10
95.658634
20
142.565547
11
93.987350
21
143.885084
0
LINE
8
Layer 1
10
93.987350
20
143.885084
11
92.390300
21
145.348000
0
LINE
8
Layer 1
10
92.390300
20
145.348000
11
93.328543
21
143.724873
0
LINE
8
Layer 1
10
93.328543
20
143.724873
11
94.483886
21
142.282484
0
LINE
8
Layer 1
10
94.483886
20
142.282484
11
95.814239
21
140.991947
0
LINE
8
Layer 1
10
95.814239
20
140.991947
11
97.277513
21
139.824375
0
LINE
8
Layer 1
10
97.277513
20
139.824375
11
100.434458
21
137.742578
0
LINE
8
Layer 1
10
100.434458
20
137.742578
11
103.618000
21
135.806000
0
LINE
8
Layer 1
10
103.618000
20
135.806000
11
109.882000
21
131.546000
0
LINE
8
Layer 1
10
109.882000
20
131.546000
11
114.778625
21
127.657500
0
LINE
8
Layer 1
10
114.778625
20
127.657500
11
119.403000
21
123.445000
0
LINE
8
Layer 1
10
119.403000
20
123.445000
11
123.041484
21
119.600188
0
LINE
8
Layer 1
10
123.041484
20
119.600188
11
126.118125
21
115.620000
0
LINE
8
Layer 1
10
126.118125
20
115.620000
11
128.808703
21
111.369812
0
LINE
8
Layer 1
10
128.808703
20
111.369812
11
131.289000
21
106.715000
0
LINE
8
Layer 1
10
131.289000
20
106.715000
11
132.302125
21
104.795750
0
LINE
8
Layer 1
10
132.302125
20
104.795750
11
133.160000
21
102.815000
0
LINE
8
Layer 1
10
133.160000
20
102.815000
11
133.542922
21
100.770661
0
LINE
8
Layer 1
10
133.542922
20
100.770661
11
133.712375
21
98.266112
0
LINE
8
Layer 1
10
133.712375
20
98.266112
11
133.826000
21
93.505200
0
LINE
8
Layer 1
10
133.826000
20
93.505200
11
134.196406
21
83.316905
0
LINE
8
Layer 1
10
134.196406
20
83.316905
11
134.428250
21
73.117687
0
LINE
8
Layer 1
10
134.428250
20
73.117687
11
134.753000
21
52.720800
0
LINE
8
Layer 1
10
134.753000
20
52.720800
11
132.848000
21
56.740400
0
LINE
8
Layer 1
10
132.848000
20
56.740400
11
130.040500
21
62.029100
0
LINE
8
Layer 1
10
130.040500
20
62.029100
11
127.032000
21
67.206200
0
LINE
8
Layer 1
10
127.032000
20
67.206200
11
124.109469
21
71.765317
0
LINE
8
Layer 1
10
124.109469
20
71.765317
11
120.998500
21
76.213913
0
LINE
8
Layer 1
10
120.998500
20
76.213913
11
114.437000
21
84.847000
0
LINE
8
Layer 1
10
114.437000
20
84.847000
11
109.129500
21
91.492625
0
LINE
8
Layer 1
10
109.129500
20
91.492625
11
103.671000
21
98.014500
0
LINE
8
Layer 1
10
103.671000
20
98.014500
11
98.978800
21
103.224875
0
LINE
8
Layer 1
10
98.978800
20
103.224875
11
94.148200
21
108.307000
0
LINE
8
Layer 1
10
94.148200
20
108.307000
11
91.164425
21
111.267750
0
LINE
8
Layer 1
10
91.164425
20
111.267750
11
89.560591
21
112.963375
0
LINE
8
Layer 1
10
89.560591
20
112.963375
11
88.570500
21
114.272000
0
LINE
8
Layer 1
10
88.570500
20
114.272000
11
87.938058
21
116.314172
0
LINE
8
Layer 1
10
87.938058
20
116.314172
11
87.412537
21
119.258125
0
LINE
8
Layer 1
10
87.412537
20
119.258125
11
86.647500
21
124.641000
0
LINE
8
Layer 1
10
86.647500
20
124.641000
11
85.662795
21
130.072922
0
LINE
8
Layer 1
10
85.662795
20
130.072922
11
84.526784
21
135.501563
0
LINE
8
Layer 1
10
84.526784
20
135.501563
11
83.171900
21
140.877984
0
LINE
8
Layer 1
10
83.171900
20
140.877984
11
81.530575
21
146.153250
0
LINE
8
Layer 1
10
81.530575
20
146.153250
11
79.535240
21
151.278422
0
LINE
8
Layer 1
10
79.535240
20
151.278422
11
77.118328
21
156.204562
0
LINE
8
Layer 1
10
77.118328
20
156.204562
11
75.730666
21
158.577703
0
LINE
8
Layer 1
10
75.730666
20
158.577703
11
74.212271
21
160.882734
0
LINE
8
Layer 1
10
74.212271
20
160.882734
11
72.554698
21
163.113539
0
LINE
8
Layer 1
10
72.554698
20
163.113539
11
70.749500
21
165.264000
0
LINE
8
Layer 1
10
70.749500
20
165.264000
11
70.457400
21
165.588000
0
LINE
8
Layer 1
10
70.457400
20
165.588000
11
71.070930
21
163.837891
0
LINE
8
Layer 1
10
71.070930
20
163.837891
11
71.901162
21
162.133625
0
LINE
8
Layer 1
10
71.901162
20
162.133625
11
73.688200
21
158.809000
0
LINE
8
Layer 1
10
73.688200
20
158.809000
11
75.750425
21
154.353000
0
LINE
8
Layer 1
10
75.750425
20
154.353000
11
77.660900
21
149.829000
0
LINE
8
Layer 1
10
77.660900
20
149.829000
11
79.111910
21
145.945314
0
LINE
8
Layer 1
10
79.111910
20
145.945314
11
80.356880
21
141.989641
0
LINE
8
Layer 1
10
80.356880
20
141.989641
11
81.423956
21
137.976053
0
LINE
8
Layer 1
10
81.423956
20
137.976053
11
82.341287
21
133.918625
0
LINE
8
Layer 1
10
82.341287
20
133.918625
11
83.839302
21
125.728547
0
LINE
8
Layer 1
10
83.839302
20
125.728547
11
85.076100
21
117.532000
0
LINE
8
Layer 1
10
85.076100
20
117.532000
11
79.612000
21
122.962375
0
LINE
8
Layer 1
10
79.612000
20
122.962375
11
74.088500
21
128.335000
0
LINE
8
Layer 1
10
74.088500
20
128.335000
11
58.530300
21
144.033000
0
LINE
8
Layer 1
10
58.530300
20
144.033000
11
41.897200
21
161.222000
0
LINE
8
Layer 1
10
41.897200
20
161.222000
11
36.146500
21
167.024125
0
LINE
8
Layer 1
10
36.146500
20
167.024125
11
33.184609
21
169.845828
0
LINE
8
Layer 1
10
33.184609
20
169.845828
11
30.129700
21
172.539000
0
LINE
8
Layer 1
10
30.129700
20
172.539000
11
32.717306
21
169.044375
0
LINE
8
Layer 1
10
32.717306
20
169.044375
11
35.424425
21
165.659250
0
LINE
8
Layer 1
10
35.424425
20
165.659250
11
41.068800
21
159.060000
0
LINE
8
Layer 1
10
41.068800
20
159.060000
11
48.767025
21
150.428250
0
LINE
8
Layer 1
10
48.767025
20
150.428250
11
56.681900
21
141.995000
0
LINE
8
Layer 1
10
56.681900
20
141.995000
11
62.087612
21
136.228375
0
LINE
8
Layer 1
10
62.087612
20
136.228375
11
67.640100
21
130.608000
0
LINE
8
Layer 1
10
67.640100
20
130.608000
11
64.558813
21
130.239875
0
LINE
8
Layer 1
10
64.558813
20
130.239875
11
61.453900
21
130.090000
0
LINE
8
Layer 1
10
61.453900
20
130.090000
11
55.176861
21
130.073344
0
LINE
8
Layer 1
10
55.176861
20
130.073344
11
48.987413
21
130.546250
0
LINE
8
Layer 1
10
48.987413
20
130.546250
11
42.858283
21
131.523531
0
LINE
8
Layer 1
10
42.858283
20
131.523531
11
36.762200
21
133.020000
0
LINE
8
Layer 1
10
36.762200
20
133.020000
11
33.543325
21
134.419500
0
LINE
8
Layer 1
10
33.543325
20
134.419500
11
30.835800
21
135.594000
0
LINE
8
Layer 1
10
30.835800
20
135.594000
11
30.763100
21
135.332000
0
LINE
8
Layer 1
10
30.763100
20
135.332000
11
30.948350
21
134.913000
0
LINE
8
Layer 1
10
30.948350
20
134.913000
11
31.253900
21
134.575000
0
LINE
8
Layer 1
10
31.253900
20
134.575000
11
32.530614
21
133.580534
0
LINE
8
Layer 1
10
32.530614
20
133.580534
11
33.983351
21
132.679510
0
LINE
8
Layer 1
10
33.983351
20
132.679510
11
37.329700
21
131.142016
0
LINE
8
Layer 1
10
37.329700
20
131.142016
11
41.118568
21
129.930982
0
LINE
8
Layer 1
10
41.118568
20
129.930982
11
45.175575
21
129.014875
0
LINE
8
Layer 1
10
45.175575
20
129.014875
11
49.326341
21
128.362158
0
LINE
8
Layer 1
10
49.326341
20
128.362158
11
53.396487
21
127.941297
0
LINE
8
Layer 1
10
53.396487
20
127.941297
11
57.211634
21
127.720756
0
LINE
8
Layer 1
10
57.211634
20
127.720756
11
60.597400
21
127.669000
0
LINE
8
Layer 1
10
60.597400
20
127.669000
11
65.253388
21
127.874750
0
LINE
8
Layer 1
10
65.253388
20
127.874750
11
69.901200
21
128.226000
0
LINE
8
Layer 1
10
69.901200
20
128.226000
11
79.750200
21
118.579500
0
LINE
8
Layer 1
10
79.750200
20
118.579500
11
89.404200
21
108.738000
0
LINE
8
Layer 1
10
89.404200
20
108.738000
11
99.224788
21
98.442962
0
LINE
8
Layer 1
10
99.224788
20
98.442962
11
103.965258
21
93.141633
0
LINE
8
Layer 1
10
103.965258
20
93.141633
11
108.508000
21
87.661400
0
LINE
8
Layer 1
10
108.508000
20
87.661400
11
104.986236
21
88.905893
0
LINE
8
Layer 1
10
104.986236
20
88.905893
11
101.374464
21
89.848111
0
LINE
8
Layer 1
10
101.374464
20
89.848111
11
97.694351
21
90.547477
0
LINE
8
Layer 1
10
97.694351
20
90.547477
11
93.967562
21
91.063412
0
LINE
8
Layer 1
10
93.967562
20
91.063412
11
86.460630
21
91.782683
0
LINE
8
Layer 1
10
86.460630
20
91.782683
11
79.027000
21
92.481300
0
LINE
8
Layer 1
10
79.027000
20
92.481300
11
72.668203
21
93.389897
0
LINE
8
Layer 1
10
72.668203
20
93.389897
11
66.925100
21
94.635975
0
LINE
8
Layer 1
10
66.925100
20
94.635975
11
61.316997
21
96.363366
0
LINE
8
Layer 1
10
61.316997
20
96.363366
11
55.363200
21
98.715900
0
LINE
8
Layer 1
10
55.363200
20
98.715900
11
57.077523
21
97.434967
0
LINE
8
Layer 1
10
57.077523
20
97.434967
11
58.916263
21
96.333613
0
LINE
8
Layer 1
10
58.916263
20
96.333613
11
62.805700
21
94.533100
0
LINE
8
Layer 1
10
62.805700
20
94.533100
11
66.690894
21
93.130369
0
LINE
8
Layer 1
10
66.690894
20
93.130369
11
70.568811
21
92.034389
0
LINE
8
Layer 1
10
70.568811
20
92.034389
11
74.449332
21
91.181055
0
LINE
8
Layer 1
10
74.449332
20
91.181055
11
78.342338
21
90.506262
0
LINE
8
Layer 1
10
78.342338
20
90.506262
11
86.205320
21
89.435880
0
LINE
8
Layer 1
10
86.205320
20
89.435880
11
94.236800
21
88.310400
0
LINE
8
Layer 1
10
94.236800
20
88.310400
11
99.741700
21
87.234100
0
LINE
8
Layer 1
10
99.741700
20
87.234100
11
105.139000
21
85.708200
0
LINE
8
Layer 1
10
105.139000
20
85.708200
11
108.082000
21
84.842538
0
LINE
8
Layer 1
10
108.082000
20
84.842538
11
109.550688
21
84.317236
0
LINE
8
Layer 1
10
109.550688
20
84.317236
11
110.857000
21
83.649800
0
LINE
8
Layer 1
10
110.857000
20
83.649800
11
112.255375
21
82.384275
0
LINE
8
Layer 1
10
112.255375
20
82.384275
11
113.461000
21
80.909200
0
LINE
8
Layer 1
10
113.461000
20
80.909200
11
118.052000
21
74.816100
0
LINE
8
Layer 1
10
118.052000
20
74.816100
11
122.002094
21
69.223589
0
LINE
8
Layer 1
10
122.002094
20
69.223589
11
125.684250
21
63.449587
0
LINE
8
Layer 1
10
125.684250
20
63.449587
11
128.980531
21
57.455817
0
LINE
8
Layer 1
10
128.980531
20
57.455817
11
130.447113
21
54.364557
0
LINE
8
Layer 1
10
130.447113
20
54.364557
11
131.773000
21
51.204000
0
LINE
8
Layer 1
10
131.773000
20
51.204000
11
132.664875
21
48.932762
0
LINE
8
Layer 1
10
132.664875
20
48.932762
11
133.283000
21
46.587500
0
LINE
8
Layer 1
10
133.283000
20
46.587500
11
133.307875
21
44.496494
0
LINE
8
Layer 1
10
133.307875
20
44.496494
11
133.074000
21
41.770125
0
LINE
8
Layer 1
10
133.074000
20
41.770125
11
132.472000
21
36.695800
0
LINE
8
Layer 1
10
132.472000
20
36.695800
11
130.851625
21
38.887050
0
LINE
8
Layer 1
10
130.851625
20
38.887050
11
129.022000
21
40.913000
0
LINE
8
Layer 1
10
129.022000
20
40.913000
11
126.441770
21
43.354921
0
LINE
8
Layer 1
10
126.441770
20
43.354921
11
123.693469
21
45.466934
0
LINE
8
Layer 1
10
123.693469
20
45.466934
11
120.795684
21
47.290136
0
LINE
8
Layer 1
10
120.795684
20
47.290136
11
117.767000
21
48.865625
0
LINE
8
Layer 1
10
117.767000
20
48.865625
11
114.626004
21
50.234498
0
LINE
8
Layer 1
10
114.626004
20
50.234498
11
111.391281
21
51.437853
0
LINE
8
Layer 1
10
111.391281
20
51.437853
11
104.715000
21
53.512400
0
LINE
8
Layer 1
10
104.715000
20
53.512400
11
100.254950
21
54.684613
0
LINE
8
Layer 1
10
100.254950
20
54.684613
11
95.846500
21
56.015900
0
LINE
8
Layer 1
10
95.846500
20
56.015900
11
94.416672
21
56.598088
0
LINE
8
Layer 1
10
94.416672
20
56.598088
11
92.829925
21
57.416525
0
LINE
8
Layer 1
10
92.829925
20
57.416525
11
91.419091
21
58.441175
0
LINE
8
Layer 1
10
91.419091
20
58.441175
11
90.883650
21
59.021443
0
LINE
8
Layer 1
10
90.883650
20
59.021443
11
90.517000
21
59.642000
0
LINE
8
Layer 1
10
90.517000
20
59.642000
11
90.346137
21
60.238984
0
LINE
8
Layer 1
10
90.346137
20
60.238984
11
90.336300
21
60.803909
0
LINE
8
Layer 1
10
90.336300
20
60.803909
11
90.722900
21
61.851966
0
LINE
8
Layer 1
10
90.722900
20
61.851966
11
91.523200
21
62.814939
0
LINE
8
Layer 1
10
91.523200
20
62.814939
11
92.583600
21
63.721600
0
LINE
8
Layer 1
10
92.583600
20
63.721600
11
94.870300
21
65.481059
0
LINE
8
Layer 1
10
94.870300
20
65.481059
11
95.789400
21
66.391397
0
LINE
8
Layer 1
10
95.789400
20
66.391397
11
96.354200
21
67.360500
0
LINE
8
Layer 1
10
96.354200
20
67.360500
11
96.474562
21
68.137475
0
LINE
8
Layer 1
10
96.474562
20
68.137475
11
96.283600
21
68.896600
0
LINE
8
Layer 1
10
96.283600
20
68.896600
11
95.692905
21
69.654198
0
LINE
8
Layer 1
10
95.692905
20
69.654198
11
94.859913
21
70.256988
0
LINE
8
Layer 1
10
94.859913
20
70.256988
11
92.995900
21
71.041900
0
LINE
8
Layer 1
10
92.995900
20
71.041900
11
90.915042
21
71.531486
0
LINE
8
Layer 1
10
90.915042
20
71.531486
11
88.765812
21
71.837987
0
LINE
8
Layer 1
10
88.765812
20
71.837987
11
84.466500
21
72.326200
0
LINE
8
Layer 1
10
84.466500
20
72.326200
11
80.576112
21
72.971936
0
LINE
8
Layer 1
10
80.576112
20
72.971936
11
76.756600
21
73.771187
0
LINE
8
Layer 1
10
76.756600
20
73.771187
11
72.981713
21
74.752220
0
LINE
8
Layer 1
10
72.981713
20
74.752220
11
69.225200
21
75.943300
0
LINE
8
Layer 1
10
69.225200
20
75.943300
11
65.938870
21
77.166521
0
LINE
8
Layer 1
10
65.938870
20
77.166521
11
62.539938
21
78.621972
0
LINE
8
Layer 1
10
62.539938
20
78.621972
11
59.135736
21
80.318787
0
LINE
8
Layer 1
10
59.135736
20
80.318787
11
55.833600
21
82.266100
0
LINE
8
Layer 1
10
55.833600
20
82.266100
11
52.740864
21
84.473044
0
LINE
8
Layer 1
10
52.740864
20
84.473044
11
49.964863
21
86.948753
0
LINE
8
Layer 1
10
49.964863
20
86.948753
11
47.612930
21
89.702361
0
LINE
8
Layer 1
10
47.612930
20
89.702361
11
46.629531
21
91.186230
0
LINE
8
Layer 1
10
46.629531
20
91.186230
11
45.792400
21
92.743000
0
LINE
8
Layer 1
10
45.792400
20
92.743000
11
45.132161
21
94.396602
0
LINE
8
Layer 1
10
45.132161
20
94.396602
11
44.715063
21
96.164587
0
LINE
8
Layer 1
10
44.715063
20
96.164587
11
44.644633
21
97.961805
0
LINE
8
Layer 1
10
44.644633
20
97.961805
11
45.024400
21
99.703100
0
LINE
8
Layer 1
10
45.024400
20
99.703100
11
45.444684
21
100.562965
0
LINE
8
Layer 1
10
45.444684
20
100.562965
11
45.971387
21
101.243067
0
LINE
8
Layer 1
10
45.971387
20
101.243067
11
46.592061
21
101.763421
0
LINE
8
Layer 1
10
46.592061
20
101.763421
11
47.294256
21
102.144042
0
LINE
8
Layer 1
10
47.294256
20
102.144042
11
48.893416
21
102.566149
0
LINE
8
Layer 1
10
48.893416
20
102.566149
11
50.669275
21
102.669512
0
LINE
8
Layer 1
10
50.669275
20
102.669512
11
54.352731
21
102.560502
0
LINE
8
Layer 1
10
54.352731
20
102.560502
11
56.061147
21
102.668375
0
LINE
8
Layer 1
10
56.061147
20
102.668375
11
57.547900
21
103.098000
0
LINE
8
Layer 1
10
57.547900
20
103.098000
11
58.181850
21
103.533500
0
LINE
8
Layer 1
10
58.181850
20
103.533500
11
58.584500
21
104.182000
0
LINE
8
Layer 1
10
58.584500
20
104.182000
11
58.689862
21
105.180766
0
LINE
8
Layer 1
10
58.689862
20
105.180766
11
58.368250
21
106.034875
0
LINE
8
Layer 1
10
58.368250
20
106.034875
11
57.756163
21
106.766547
0
LINE
8
Layer 1
10
57.756163
20
106.766547
11
56.990100
21
107.398000
0
LINE
8
Layer 1
10
56.990100
20
107.398000
11
55.062828
21
108.609563
0
LINE
8
Layer 1
10
55.062828
20
108.609563
11
52.855300
21
109.731500
0
LINE
8
Layer 1
10
52.855300
20
109.731500
11
48.497300
21
111.795000
0
LINE
8
Layer 1
10
48.497300
20
111.795000
11
41.942194
21
115.430453
0
LINE
8
Layer 1
10
41.942194
20
115.430453
11
38.559226
21
117.573475
0
LINE
8
Layer 1
10
38.559226
20
117.573475
11
35.248750
21
119.919875
0
LINE
8
Layer 1
10
35.248750
20
119.919875
11
32.117843
21
122.459541
0
LINE
8
Layer 1
10
32.117843
20
122.459541
11
29.273581
21
125.182359
0
LINE
8
Layer 1
10
29.273581
20
125.182359
11
26.823041
21
128.078217
0
LINE
8
Layer 1
10
26.823041
20
128.078217
11
24.873300
21
131.137000
0
LINE
8
Layer 1
10
24.873300
20
131.137000
11
24.341005
21
132.243375
0
LINE
8
Layer 1
10
24.341005
20
132.243375
11
23.939463
21
133.422500
0
LINE
8
Layer 1
10
23.939463
20
133.422500
11
23.778014
21
134.636875
0
LINE
8
Layer 1
10
23.778014
20
134.636875
11
23.966000
21
135.849000
0
LINE
8
Layer 1
10
23.966000
20
135.849000
11
24.566438
21
136.938500
0
LINE
8
Layer 1
10
24.566438
20
136.938500
11
25.475200
21
137.794000
0
LINE
8
Layer 1
10
25.475200
20
137.794000
11
26.568517
21
138.422570
0
LINE
8
Layer 1
10
26.568517
20
138.422570
11
27.624923
21
138.767500
0
LINE
8
Layer 1
10
27.624923
20
138.767500
11
28.631678
21
138.903742
0
LINE
8
Layer 1
10
28.631678
20
138.903742
11
29.576038
21
138.906250
0
LINE
8
Layer 1
10
29.576038
20
138.906250
11
31.226608
21
138.809875
0
LINE
8
Layer 1
10
31.226608
20
138.809875
11
31.907335
21
138.860898
0
LINE
8
Layer 1
10
31.907335
20
138.860898
11
32.474700
21
139.078000
0
LINE
8
Layer 1
10
32.474700
20
139.078000
11
32.786350
21
139.393250
0
LINE
8
Layer 1
10
32.786350
20
139.393250
11
32.977400
21
139.797000
0
LINE
8
Layer 1
10
32.977400
20
139.797000
11
33.042203
21
140.304156
0
LINE
8
Layer 1
10
33.042203
20
140.304156
11
32.949825
21
140.772500
0
LINE
8
Layer 1
10
32.949825
20
140.772500
11
32.415100
21
141.601000
0
LINE
8
Layer 1
10
32.415100
20
141.601000
11
31.583829
21
142.336570
0
LINE
8
Layer 1
10
31.583829
20
142.336570
11
30.474070
21
143.105187
0
LINE
8
Layer 1
10
30.474070
20
143.105187
11
27.744013
21
144.690000
0
LINE
8
Layer 1
10
27.744013
20
144.690000
11
24.874773
21
146.252313
0
LINE
8
Layer 1
10
24.874773
20
146.252313
11
22.516200
21
147.689000
0
LINE
8
Layer 1
10
22.516200
20
147.689000
11
20.593013
21
149.336500
0
LINE
8
Layer 1
10
20.593013
20
149.336500
11
19.766967
21
150.321781
0
LINE
8
Layer 1
10
19.766967
20
150.321781
11
19.129800
21
151.386000
0
LINE
8
Layer 1
10
19.129800
20
151.386000
11
18.948200
21
151.830000
0
LINE
8
Layer 1
10
18.948200
20
151.830000
11
18.811500
21
152.289000
0
LINE
8
Layer 1
10
18.811500
20
152.289000
11
18.721200
21
152.760000
0
LINE
8
Layer 1
10
18.721200
20
152.760000
11
18.678200
21
153.237000
0
LINE
8
Layer 1
10
18.678200
20
153.237000
11
18.682900
21
153.717000
0
LINE
8
Layer 1
10
18.682900
20
153.717000
11
18.735200
21
154.193000
0
LINE
8
Layer 1
10
18.735200
20
154.193000
11
18.834600
21
154.663000
0
LINE
8
Layer 1
10
18.834600
20
154.663000
11
18.980200
21
155.119000
0
LINE
8
Layer 1
10
18.980200
20
155.119000
11
19.521739
21
156.076752
0
LINE
8
Layer 1
10
19.521739
20
156.076752
11
20.238731
21
156.708078
0
LINE
8
Layer 1
10
20.238731
20
156.708078
11
21.084527
21
157.091459
0
LINE
8
Layer 1
10
21.084527
20
157.091459
11
22.012475
21
157.305375
0
LINE
8
Layer 1
10
22.012475
20
157.305375
11
23.928231
21
157.538734
0
LINE
8
Layer 1
10
23.928231
20
157.538734
11
24.822739
21
157.715139
0
LINE
8
Layer 1
10
24.822739
20
157.715139
11
25.612800
21
158.036000
0
LINE
8
Layer 1
10
25.612800
20
158.036000
11
25.988500
21
158.409000
0
LINE
8
Layer 1
10
25.988500
20
158.409000
11
26.201000
21
158.899000
0
LINE
8
Layer 1
10
26.201000
20
158.899000
11
26.204087
21
159.928391
0
LINE
8
Layer 1
10
26.204087
20
159.928391
11
25.782750
21
160.966125
0
LINE
8
Layer 1
10
25.782750
20
160.966125
11
24.618400
21
162.878000
0
LINE
8
Layer 1
10
24.618400
20
162.878000
11
23.899003
21
164.533857
0
LINE
8
Layer 1
10
23.899003
20
164.533857
11
23.259684
21
166.578672
0
LINE
8
Layer 1
10
23.259684
20
166.578672
11
22.727855
21
168.887557
0
LINE
8
Layer 1
10
22.727855
20
168.887557
11
22.330925
21
171.335625
0
LINE
8
Layer 1
10
22.330925
20
171.335625
11
22.096304
21
173.797990
0
LINE
8
Layer 1
10
22.096304
20
173.797990
11
22.051403
21
176.149766
0
LINE
8
Layer 1
10
22.051403
20
176.149766
11
22.223632
21
178.266064
0
LINE
8
Layer 1
10
22.223632
20
178.266064
11
22.640400
21
180.022000
0
LINE
8
Layer 1
10
22.640400
20
180.022000
11
22.803375
21
180.349500
0
LINE
8
Layer 1
10
22.803375
20
180.349500
11
23.071200
21
180.584000
0
LINE
8
Layer 1
10
23.071200
20
180.584000
11
24.524790
21
180.945455
0
LINE
8
Layer 1
10
24.524790
20
180.945455
11
26.329659
21
181.021078
0
LINE
8
Layer 1
10
26.329659
20
181.021078
11
28.368393
21
180.861506
0
LINE
8
Layer 1
10
28.368393
20
180.861506
11
30.523575
21
180.517375
0
LINE
8
Layer 1
10
30.523575
20
180.517375
11
34.713628
21
179.477984
0
LINE
8
Layer 1
10
34.713628
20
179.477984
11
37.960500
21
178.308000
0
LINE
8
Layer 1
10
37.960500
20
178.308000
11
40.149050
21
177.098250
0
LINE
8
Layer 1
10
40.149050
20
177.098250
11
42.348100
21
175.962000
0
LINE
8
Layer 1
10
42.348100
20
175.962000
11
43.124575
21
175.832375
0
LINE
8
Layer 1
10
43.124575
20
175.832375
11
43.888000
21
176.014000
0
LINE
8
Layer 1
10
43.888000
20
176.014000
11
44.394406
21
176.566400
0
LINE
8
Layer 1
10
44.394406
20
176.566400
11
44.598433
21
177.403016
0
LINE
8
Layer 1
10
44.598433
20
177.403016
11
44.444988
21
179.631375
0
LINE
8
Layer 1
10
44.444988
20
179.631375
11
44.118948
21
182.104047
0
LINE
8
Layer 1
10
44.118948
20
182.104047
11
44.107233
21
183.246053
0
LINE
8
Layer 1
10
44.107233
20
183.246053
11
44.311600
21
184.226000
0
LINE
8
Layer 1
10
44.311600
20
184.226000
11
44.930212
21
185.185875
0
LINE
8
Layer 1
10
44.930212
20
185.185875
11
45.888200
21
185.806000
0
LINE
8
Layer 1
10
45.888200
20
185.806000
11
46.579898
21
185.966734
0
LINE
8
Layer 1
10
46.579898
20
185.966734
11
47.298288
21
185.977375
0
LINE
8
Layer 1
10
47.298288
20
185.977375
11
48.700200
21
185.689000
0
LINE
8
Layer 1
10
48.700200
20
185.689000
11
49.903411
21
185.189640
0
LINE
8
Layer 1
10
49.903411
20
185.189640
11
51.011474
21
184.515195
0
LINE
8
Layer 1
10
51.011474
20
184.515195
11
52.032630
21
183.691747
0
LINE
8
Layer 1
10
52.032630
20
183.691747
11
52.975119
21
182.745375
0
LINE
8
Layer 1
10
52.975119
20
182.745375
11
54.657054
21
180.588180
0
LINE
8
Layer 1
10
54.657054
20
180.588180
11
56.123200
21
178.252250
0
LINE
8
Layer 1
10
56.123200
20
178.252250
11
58.671806
21
173.878750
0
LINE
8
Layer 1
10
58.671806
20
173.878750
11
59.886107
21
172.258461
0
LINE
8
Layer 1
10
59.886107
20
172.258461
11
60.507097
21
171.681212
0
LINE
8
Layer 1
10
60.507097
20
171.681212
11
61.148300
21
171.294000
0
LINE
8
Layer 1
10
61.148300
20
171.294000
11
61.735475
21
171.166250
0
LINE
8
Layer 1
10
61.735475
20
171.166250
11
62.322800
21
171.289000
0
LINE
8
Layer 1
10
62.322800
20
171.289000
11
62.803076
21
171.605223
0
LINE
8
Layer 1
10
62.803076
20
171.605223
11
63.134798
21
172.027031
0
LINE
8
Layer 1
10
63.134798
20
172.027031
11
63.490263
21
173.086250
0
LINE
8
Layer 1
10
63.490263
20
173.086250
11
63.664545
21
174.264344
0
LINE
8
Layer 1
10
63.664545
20
174.264344
11
63.933000
21
175.359000
0
LINE
8
Layer 1
10
63.933000
20
175.359000
11
64.321919
21
176.095984
0
LINE
8
Layer 1
10
64.321919
20
176.095984
11
64.849175
21
176.766125
0
LINE
8
Layer 1
10
64.849175
20
176.766125
11
65.491519
21
177.321703
0
LINE
8
Layer 1
10
65.491519
20
177.321703
11
66.225700
21
177.715000
0
LINE
8
Layer 1
10
66.225700
20
177.715000
11
66.993950
21
177.902141
0
LINE
8
Layer 1
10
66.993950
20
177.902141
11
67.769400
21
177.904875
0
LINE
8
Layer 1
10
67.769400
20
177.904875
11
69.288500
21
177.515000
0
LINE
8
Layer 1
10
69.288500
20
177.515000
11
71.178960
21
176.505168
0
LINE
8
Layer 1
10
71.178960
20
176.505168
11
72.928064
21
175.077844
0
LINE
8
Layer 1
10
72.928064
20
175.077844
11
74.544477
21
173.332285
0
LINE
8
Layer 1
10
74.544477
20
173.332285
11
76.036862
21
171.367750
0
LINE
8
Layer 1
10
76.036862
20
171.367750
11
78.684205
21
167.178781
0
LINE
8
Layer 1
10
78.684205
20
167.178781
11
80.939400
21
163.305000
0
LINE
8
Layer 1
10
80.939400
20
163.305000
11
82.834625
21
160.275125
0
LINE
8
Layer 1
10
82.834625
20
160.275125
11
84.907900
21
157.366000
0
LINE
8
Layer 1
10
84.907900
20
157.366000
11
86.890061
21
155.058266
0
LINE
8
Layer 1
10
86.890061
20
155.058266
11
89.153537
21
152.905125
0
LINE
8
Layer 1
10
89.153537
20
152.905125
11
91.653470
21
151.048422
0
LINE
8
Layer 1
10
91.653470
20
151.048422
11
94.345000
21
149.630000
0
LINE
8
Layer 1
10
94.345000
20
149.630000
11
96.029038
21
149.104250
0
LINE
8
Layer 1
10
96.029038
20
149.104250
11
96.911645
21
149.051469
0
LINE
8
Layer 1
10
96.911645
20
149.051469
11
97.745400
21
149.255000
0
LINE
8
Layer 1
10
97.745400
20
149.255000
11
98.460688
21
149.809750
0
LINE
8
Layer 1
10
98.460688
20
149.809750
11
98.903500
21
150.606000
0
LINE
8
Layer 1
10
98.903500
20
150.606000
11
99.086713
21
151.708250
0
LINE
8
Layer 1
10
99.086713
20
151.708250
11
98.740500
21
152.770000
0
LINE
8
Layer 1
10
98.740500
20
152.770000
11
97.965203
21
153.805953
0
LINE
8
Layer 1
10
97.965203
20
153.805953
11
96.990275
21
154.768875
0
LINE
8
Layer 1
10
96.990275
20
154.768875
11
94.981900
21
156.575000
0
LINE
8
Layer 1
10
94.981900
20
156.575000
11
93.213100
21
158.516000
0
LINE
8
Layer 1
10
93.213100
20
158.516000
11
91.610500
21
160.597000
0
LINE
8
Layer 1
10
91.610500
20
160.597000
11
90.184700
21
162.803000
0
LINE
8
Layer 1
10
90.184700
20
162.803000
11
88.945400
21
165.118000
0
LINE
8
Layer 1
10
88.945400
20
165.118000
11
88.042600
21
167.254063
0
LINE
8
Layer 1
10
88.042600
20
167.254063
11
87.313875
21
169.701750
0
LINE
8
Layer 1
10
87.313875
20
169.701750
11
87.011188
21
172.197063
0
LINE
8
Layer 1
10
87.011188
20
172.197063
11
87.098346
21
173.380078
0
LINE
8
Layer 1
10
87.098346
20
173.380078
11
87.386500
21
174.476000
0
LINE
8
Layer 1
10
87.386500
20
174.476000
11
87.741277
21
175.181422
0
LINE
8
Layer 1
10
87.741277
20
175.181422
11
88.217637
21
175.779125
0
LINE
8
Layer 1
10
88.217637
20
175.779125
11
89.498400
21
176.648000
0
LINE
8
Layer 1
10
89.498400
20
176.648000
11
90.502276
21
176.980656
0
LINE
8
Layer 1
10
90.502276
20
176.980656
11
91.544273
21
177.134437
0
LINE
8
Layer 1
10
91.544273
20
177.134437
11
93.672562
21
176.983750
0
LINE
8
Layer 1
10
93.672562
20
176.983750
11
95.743120
21
176.352688
0
LINE
8
Layer 1
10
95.743120
20
176.352688
11
97.615800
21
175.398000
0
LINE
8
Layer 1
10
97.615800
20
175.398000
11
99.432950
21
174.178500
0
LINE
8
Layer 1
10
99.432950
20
174.178500
11
100.375425
21
173.606719
0
LINE
8
Layer 1
10
100.375425
20
173.606719
11
101.353000
21
173.172000
0
LINE
8
Layer 1
10
101.353000
20
173.172000
11
102.495250
21
173.031500
0
LINE
8
Layer 1
10
102.495250
20
173.031500
11
103.597000
21
173.356000
0
LINE
8
Layer 1
10
103.597000
20
173.356000
11
104.141750
21
173.837375
0
LINE
8
Layer 1
10
104.141750
20
173.837375
11
104.430000
21
174.504000
0
LINE
8
Layer 1
10
104.430000
20
174.504000
11
104.319729
21
175.630164
0
LINE
8
Layer 1
10
104.319729
20
175.630164
11
103.697477
21
177.147875
0
LINE
8
Layer 1
10
103.697477
20
177.147875
11
102.702083
21
178.926586
0
LINE
8
Layer 1
10
102.702083
20
178.926586
11
101.472387
21
180.835750
0
LINE
8
Layer 1
10
101.472387
20
180.835750
11
96.987400
21
187.166000
0
LINE
8
Layer 1
10
96.987400
20
187.166000
11
95.436068
21
189.774391
0
LINE
8
Layer 1
10
95.436068
20
189.774391
11
93.882984
21
192.804000
0
LINE
8
Layer 1
10
93.882984
20
192.804000
11
92.417984
21
196.132109
0
LINE
8
Layer 1
10
92.417984
20
196.132109
11
91.130900
21
199.636000
0
LINE
8
Layer 1
10
91.130900
20
199.636000
11
90.111566
21
203.192953
0
LINE
8
Layer 1
10
90.111566
20
203.192953
11
89.449816
21
206.680250
0
LINE
8
Layer 1
10
89.449816
20
206.680250
11
89.235482
21
209.975172
0
LINE
8
Layer 1
10
89.235482
20
209.975172
11
89.324170
21
211.512143
0
LINE
8
Layer 1
10
89.324170
20
211.512143
11
89.558400
21
212.955000
0
LINE
8
Layer 1
10
89.558400
20
212.955000
11
90.159922
21
214.799391
0
LINE
8
Layer 1
10
90.159922
20
214.799391
11
91.089700
21
216.450375
0
LINE
8
Layer 1
10
91.089700
20
216.450375
11
92.330428
21
217.882922
0
LINE
8
Layer 1
10
92.330428
20
217.882922
11
93.864800
21
219.072000
0
LINE
8
Layer 1
10
93.864800
20
219.072000
11
95.062336
21
219.685111
0
LINE
8
Layer 1
10
95.062336
20
219.685111
11
96.270361
21
220.035641
0
LINE
8
Layer 1
10
96.270361
20
220.035641
11
97.477915
21
220.144881
0
LINE
8
Layer 1
10
97.477915
20
220.144881
11
98.674037
21
220.034125
0
LINE
8
Layer 1
10
98.674037
20
220.034125
11
99.847768
21
219.724666
0
LINE
8
Layer 1
10
99.847768
20
219.724666
11
100.988145
21
219.237797
0
LINE
8
Layer 1
10
100.988145
20
219.237797
11
103.125000
21
217.817000
0
LINE
8
Layer 1
10
103.125000
20
217.817000
11
104.871250
21
216.236750
0
LINE
8
Layer 1
10
104.871250
20
216.236750
11
105.854250
21
215.509906
0
LINE
8
Layer 1
10
105.854250
20
215.509906
11
106.838000
21
215.111000
0
LINE
8
Layer 1
10
106.838000
20
215.111000
11
107.479125
21
215.158875
0
LINE
8
Layer 1
10
107.479125
20
215.158875
11
108.061000
21
215.440000
0
LINE
8
Layer 1
10
108.061000
20
215.440000
11
108.603125
21
216.112000
0
LINE
8
Layer 1
10
108.603125
20
216.112000
11
108.726000
21
216.967000
0
LINE
8
Layer 1
10
108.726000
20
216.967000
11
108.509531
21
218.173672
0
LINE
8
Layer 1
10
108.509531
20
218.173672
11
108.137250
21
219.393375
0
LINE
8
Layer 1
10
108.137250
20
219.393375
11
107.283000
21
221.762000
0
LINE
8
Layer 1
10
107.283000
20
221.762000
11
106.306672
21
225.131469
0
LINE
8
Layer 1
10
106.306672
20
225.131469
11
105.587875
21
228.751250
0
LINE
8
Layer 1
10
105.587875
20
228.751250
11
105.294141
21
232.412656
0
LINE
8
Layer 1
10
105.294141
20
232.412656
11
105.359025
21
234.193754
0
LINE
8
Layer 1
10
105.359025
20
234.193754
11
105.593000
21
235.907000
0
LINE
8
Layer 1
10
105.593000
20
235.907000
11
105.939094
21
237.196562
0
LINE
8
Layer 1
10
105.939094
20
237.196562
11
106.484500
21
238.407000
0
LINE
8
Layer 1
10
106.484500
20
238.407000
11
107.254906
21
239.474938
0
LINE
8
Layer 1
10
107.254906
20
239.474938
11
108.276000
21
240.337000
0
LINE
8
Layer 1
10
108.276000
20
240.337000
11
110.046986
21
241.171955
0
LINE
8
Layer 1
10
110.046986
20
241.171955
11
111.585203
21
241.350203
0
LINE
8
Layer 1
10
111.585203
20
241.350203
11
112.937912
21
241.031318
0
LINE
8
Layer 1
10
112.937912
20
241.031318
11
114.152375
21
240.374875
0
LINE
8
Layer 1
10
114.152375
20
240.374875
11
116.355609
21
238.687609
0
LINE
8
Layer 1
10
116.355609
20
238.687609
11
117.438904
21
237.975936
0
LINE
8
Layer 1
10
117.438904
20
237.975936
11
118.573000
21
237.565000
0
LINE
8
Layer 1
10
118.573000
20
237.565000
11
119.451937
21
237.621266
0
LINE
8
Layer 1
10
119.451937
20
237.621266
11
120.149000
21
238.048875
0
LINE
8
Layer 1
10
120.149000
20
238.048875
11
120.670562
21
238.723047
0
LINE
8
Layer 1
10
120.670562
20
238.723047
11
121.023000
21
239.519000
0
LINE
8
Layer 1
10
121.023000
20
239.519000
11
122.117000
21
243.119000
0
LINE
8
Layer 1
10
122.117000
20
243.119000
11
123.200672
21
245.752799
0
LINE
8
Layer 1
10
123.200672
20
245.752799
11
124.429000
21
248.204266
0
LINE
8
Layer 1
10
124.429000
20
248.204266
11
125.811078
21
250.489631
0
LINE
8
Layer 1
10
125.811078
20
250.489631
11
127.356000
21
252.625125
0
LINE
8
Layer 1
10
127.356000
20
252.625125
11
129.072859
21
254.626979
0
LINE
8
Layer 1
10
129.072859
20
254.626979
11
130.970750
21
256.511422
0
LINE
8
Layer 1
10
130.970750
20
256.511422
11
133.058766
21
258.294686
0
LINE
8
Layer 1
10
133.058766
20
258.294686
11
135.346000
21
259.993000
0
LINE
8
Layer 1
10
135.346000
20
259.993000
11
135.346000
21
259.993000
 0 
ENDSEC
 0 
EOF