999
"DXF R12 Output" (www.mydxf.blogspot.com)
 0 
SECTION
 2 
HEADER
 9 
$ACADVER
 1 
AC1009
 9 
$EXTMIN
 10 
 0 
 20 
 0 
 9 
$EXTMAX
 10 
 8.5 
 20 
 11 
 0 
ENDSEC
 0 
SECTION
 2 
ENTITIES
0
LINE
8
Capa 1
10
117.844000
20
302.473000
11
118.843329
21
302.372246
0
LINE
8
Capa 1
10
118.843329
20
302.372246
11
119.790270
21
302.039004
0
LINE
8
Capa 1
10
119.790270
20
302.039004
11
121.614444
21
300.853007
0
LINE
8
Capa 1
10
121.614444
20
300.853007
11
123.305260
21
299.471884
0
LINE
8
Capa 1
10
123.305260
20
299.471884
11
125.582256
21
297.453333
0
LINE
8
Capa 1
10
125.582256
20
297.453333
11
127.585412
21
295.353043
0
LINE
8
Capa 1
10
127.585412
20
295.353043
11
129.343529
21
293.158740
0
LINE
8
Capa 1
10
129.343529
20
293.158740
11
130.885407
21
290.858148
0
LINE
8
Capa 1
10
130.885407
20
290.858148
11
132.239849
21
288.438991
0
LINE
8
Capa 1
10
132.239849
20
288.438991
11
133.435654
21
285.888995
0
LINE
8
Capa 1
10
133.435654
20
285.888995
11
134.501624
21
283.195885
0
LINE
8
Capa 1
10
134.501624
20
283.195885
11
135.466560
21
280.347384
0
LINE
8
Capa 1
10
135.466560
20
280.347384
11
136.851491
21
281.406480
0
LINE
8
Capa 1
10
136.851491
20
281.406480
11
138.329880
21
282.328054
0
LINE
8
Capa 1
10
138.329880
20
282.328054
11
139.981139
21
283.031553
0
LINE
8
Capa 1
10
139.981139
20
283.031553
11
141.711524
21
283.419339
0
LINE
8
Capa 1
10
141.711524
20
283.419339
11
143.478222
21
283.454099
0
LINE
8
Capa 1
10
143.478222
20
283.454099
11
145.238420
21
283.098521
0
LINE
8
Capa 1
10
145.238420
20
283.098521
11
146.808081
21
282.391338
0
LINE
8
Capa 1
10
146.808081
20
282.391338
11
148.173475
21
281.380645
0
LINE
8
Capa 1
10
148.173475
20
281.380645
11
149.317462
21
280.117640
0
LINE
8
Capa 1
10
149.317462
20
280.117640
11
150.222900
21
278.653521
0
LINE
8
Capa 1
10
150.222900
20
278.653521
11
151.056220
21
276.533626
0
LINE
8
Capa 1
10
151.056220
20
276.533626
11
151.563236
21
274.219399
0
LINE
8
Capa 1
10
151.563236
20
274.219399
11
151.783194
21
271.773811
0
LINE
8
Capa 1
10
151.783194
20
271.773811
11
151.755337
21
269.259832
0
LINE
8
Capa 1
10
151.755337
20
269.259832
11
151.518911
21
266.740433
0
LINE
8
Capa 1
10
151.518911
20
266.740433
11
151.113157
21
264.278585
0
LINE
8
Capa 1
10
151.113157
20
264.278585
11
149.950650
21
259.779421
0
LINE
8
Capa 1
10
149.950650
20
259.779421
11
151.737080
21
260.733508
0
LINE
8
Capa 1
10
151.737080
20
260.733508
11
153.607450
21
261.505831
0
LINE
8
Capa 1
10
153.607450
20
261.505831
11
155.487327
21
261.955288
0
LINE
8
Capa 1
10
155.487327
20
261.955288
11
157.401410
21
262.050112
0
LINE
8
Capa 1
10
157.401410
20
262.050112
11
159.291830
21
261.767359
0
LINE
8
Capa 1
10
159.291830
20
261.767359
11
161.100720
21
261.084085
0
LINE
8
Capa 1
10
161.100720
20
261.084085
11
162.137921
21
260.468556
0
LINE
8
Capa 1
10
162.137921
20
260.468556
11
163.065108
21
259.745262
0
LINE
8
Capa 1
10
163.065108
20
259.745262
11
164.615507
21
258.022659
0
LINE
8
Capa 1
10
164.615507
20
258.022659
11
165.804058
21
256.010831
0
LINE
8
Capa 1
10
165.804058
20
256.010831
11
166.682900
21
253.804335
0
LINE
8
Capa 1
10
166.682900
20
253.804335
11
167.180215
21
251.972598
0
LINE
8
Capa 1
10
167.180215
20
251.972598
11
167.491915
21
250.124785
0
LINE
8
Capa 1
10
167.491915
20
250.124785
11
167.631042
21
248.265691
0
LINE
8
Capa 1
10
167.631042
20
248.265691
11
167.610635
21
246.400106
0
LINE
8
Capa 1
10
167.610635
20
246.400106
11
167.143380
21
242.668637
0
LINE
8
Capa 1
10
167.143380
20
242.668637
11
166.194475
21
238.968718
0
LINE
8
Capa 1
10
166.194475
20
238.968718
11
164.868241
21
235.338688
0
LINE
8
Capa 1
10
164.868241
20
235.338688
11
163.269000
21
231.816888
0
LINE
8
Capa 1
10
163.269000
20
231.816888
11
161.501076
21
228.441657
0
LINE
8
Capa 1
10
161.501076
20
228.441657
11
159.668790
21
225.251335
0
LINE
8
Capa 1
10
159.668790
20
225.251335
11
157.077162
21
221.045651
0
LINE
8
Capa 1
10
157.077162
20
221.045651
11
154.615510
21
216.759005
0
LINE
8
Capa 1
10
154.615510
20
216.759005
11
156.269906
21
217.677870
0
LINE
8
Capa 1
10
156.269906
20
217.677870
11
157.947644
21
218.466561
0
LINE
8
Capa 1
10
157.947644
20
218.466561
11
159.697364
21
219.052746
0
LINE
8
Capa 1
10
159.697364
20
219.052746
11
161.567710
21
219.364095
0
LINE
8
Capa 1
10
161.567710
20
219.364095
11
163.173400
21
219.346604
0
LINE
8
Capa 1
10
163.173400
20
219.346604
11
164.722364
21
219.036442
0
LINE
8
Capa 1
10
164.722364
20
219.036442
11
166.172559
21
218.420339
0
LINE
8
Capa 1
10
166.172559
20
218.420339
11
167.481940
21
217.485025
0
LINE
8
Capa 1
10
167.481940
20
217.485025
11
168.605373
21
216.190715
0
LINE
8
Capa 1
10
168.605373
20
216.190715
11
169.403640
21
214.679515
0
LINE
8
Capa 1
10
169.403640
20
214.679515
11
169.892989
21
213.032385
0
LINE
8
Capa 1
10
169.892989
20
213.032385
11
170.089670
21
211.330285
0
LINE
8
Capa 1
10
170.089670
20
211.330285
11
170.050847
21
210.063398
0
LINE
8
Capa 1
10
170.050847
20
210.063398
11
169.861401
21
208.778199
0
LINE
8
Capa 1
10
169.861401
20
208.778199
11
169.086287
21
206.177110
0
LINE
8
Capa 1
10
169.086287
20
206.177110
11
167.875627
21
203.575499
0
LINE
8
Capa 1
10
167.875627
20
203.575499
11
166.340719
21
201.021849
0
LINE
8
Capa 1
10
166.340719
20
201.021849
11
164.592861
21
198.564640
0
LINE
8
Capa 1
10
164.592861
20
198.564640
11
162.743351
21
196.252356
0
LINE
8
Capa 1
10
162.743351
20
196.252356
11
159.184570
21
192.256485
0
LINE
8
Capa 1
10
159.184570
20
192.256485
11
161.021412
21
193.329695
0
LINE
8
Capa 1
10
161.021412
20
193.329695
11
162.693536
21
194.604026
0
LINE
8
Capa 1
10
162.693536
20
194.604026
11
164.223256
21
196.052663
0
LINE
8
Capa 1
10
164.223256
20
196.052663
11
165.632882
21
197.648789
0
LINE
8
Capa 1
10
165.632882
20
197.648789
11
168.181104
21
201.176245
0
LINE
8
Capa 1
10
168.181104
20
201.176245
11
170.516695
21
204.971869
0
LINE
8
Capa 1
10
170.516695
20
204.971869
11
172.818152
21
208.821132
0
LINE
8
Capa 1
10
172.818152
20
208.821132
11
175.263970
21
212.509507
0
LINE
8
Capa 1
10
175.263970
20
212.509507
11
176.596794
21
214.226322
0
LINE
8
Capa 1
10
176.596794
20
214.226322
11
178.032644
21
215.822467
0
LINE
8
Capa 1
10
178.032644
20
215.822467
11
179.593832
21
217.271127
0
LINE
8
Capa 1
10
179.593832
20
217.271127
11
181.302670
21
218.545485
0
LINE
8
Capa 1
10
181.302670
20
218.545485
11
182.697888
21
219.344885
0
LINE
8
Capa 1
10
182.697888
20
219.344885
11
184.193542
21
219.924195
0
LINE
8
Capa 1
10
184.193542
20
219.924195
11
185.759296
21
220.191115
0
LINE
8
Capa 1
10
185.759296
20
220.191115
11
187.364810
21
220.053345
0
LINE
8
Capa 1
10
187.364810
20
220.053345
11
189.023974
21
219.402701
0
LINE
8
Capa 1
10
189.023974
20
219.402701
11
190.385457
21
218.368280
0
LINE
8
Capa 1
10
190.385457
20
218.368280
11
191.523550
21
217.063685
0
LINE
8
Capa 1
10
191.523550
20
217.063685
11
192.512540
21
215.602525
0
LINE
8
Capa 1
10
192.512540
20
215.602525
11
194.397395
21
219.063639
0
LINE
8
Capa 1
10
194.397395
20
219.063639
11
195.402294
21
220.739735
0
LINE
8
Capa 1
10
195.402294
20
220.739735
11
196.575740
21
222.362625
0
LINE
8
Capa 1
10
196.575740
20
222.362625
11
198.549120
21
224.507700
0
LINE
8
Capa 1
10
198.549120
20
224.507700
11
200.860537
21
226.387265
0
LINE
8
Capa 1
10
200.860537
20
226.387265
11
202.126857
21
227.160540
0
LINE
8
Capa 1
10
202.126857
20
227.160540
11
203.458302
21
227.787108
0
LINE
8
Capa 1
10
203.458302
20
227.787108
11
204.848410
21
228.240192
0
LINE
8
Capa 1
10
204.848410
20
228.240192
11
206.290720
21
228.493015
0
LINE
8
Capa 1
10
206.290720
20
228.493015
11
207.546276
21
228.501916
0
LINE
8
Capa 1
10
207.546276
20
228.501916
11
208.760237
21
228.276487
0
LINE
8
Capa 1
10
208.760237
20
228.276487
11
209.901025
21
227.811197
0
LINE
8
Capa 1
10
209.901025
20
227.811197
11
210.937060
21
227.100515
0
LINE
8
Capa 1
10
210.937060
20
227.100515
11
211.651970
21
226.387303
0
LINE
8
Capa 1
10
211.651970
20
226.387303
11
212.214659
21
225.620845
0
LINE
8
Capa 1
10
212.214659
20
225.620845
11
212.966151
21
223.950750
0
LINE
8
Capa 1
10
212.966151
20
223.950750
11
213.357083
21
222.135350
0
LINE
8
Capa 1
10
213.357083
20
222.135350
11
213.553000
21
220.219765
0
LINE
8
Capa 1
10
213.553000
20
220.219765
11
214.618740
21
220.717447
0
LINE
8
Capa 1
10
214.618740
20
220.717447
11
216.450190
21
221.448226
0
LINE
8
Capa 1
10
216.450190
20
221.448226
11
218.322640
21
222.065499
0
LINE
8
Capa 1
10
218.322640
20
222.065499
11
220.229760
21
222.567413
0
LINE
8
Capa 1
10
220.229760
20
222.567413
11
222.163600
21
222.951588
0
LINE
8
Capa 1
10
222.163600
20
222.951588
11
224.117550
21
223.216701
0
LINE
8
Capa 1
10
224.117550
20
223.216701
11
226.083930
21
223.361957
0
LINE
8
Capa 1
10
226.083930
20
223.361957
11
228.055600
21
223.386567
0
LINE
8
Capa 1
10
228.055600
20
223.386567
11
230.024900
21
223.290787
0
LINE
8
Capa 1
10
230.024900
20
223.290787
11
231.517317
21
223.191668
0
LINE
8
Capa 1
10
231.517317
20
223.191668
11
232.954370
21
222.855018
0
LINE
8
Capa 1
10
232.954370
20
222.855018
11
233.663746
21
222.220414
0
LINE
8
Capa 1
10
233.663746
20
222.220414
11
234.089960
21
221.353238
0
LINE
8
Capa 1
10
234.089960
20
221.353238
11
234.471721
21
220.075567
0
LINE
8
Capa 1
10
234.471721
20
220.075567
11
234.726680
21
218.726258
0
LINE
8
Capa 1
10
234.726680
20
218.726258
11
234.953030
21
216.025058
0
LINE
8
Capa 1
10
234.953030
20
216.025058
11
234.943976
21
213.842398
0
LINE
8
Capa 1
10
234.943976
20
213.842398
11
234.777228
21
211.734923
0
LINE
8
Capa 1
10
234.777228
20
211.734923
11
234.012962
21
207.686404
0
LINE
8
Capa 1
10
234.012962
20
207.686404
11
232.744866
21
203.761263
0
LINE
8
Capa 1
10
232.744866
20
203.761263
11
231.057570
21
199.841258
0
LINE
8
Capa 1
10
231.057570
20
199.841258
11
233.000140
21
199.304683
0
LINE
8
Capa 1
10
233.000140
20
199.304683
11
234.416538
21
198.661422
0
LINE
8
Capa 1
10
234.416538
20
198.661422
11
235.704446
21
197.804890
0
LINE
8
Capa 1
10
235.704446
20
197.804890
11
236.788559
21
196.717377
0
LINE
8
Capa 1
10
236.788559
20
196.717377
11
237.593570
21
195.381173
0
LINE
8
Capa 1
10
237.593570
20
195.381173
11
237.729570
21
195.045943
0
LINE
8
Capa 1
10
237.729570
20
195.045943
11
237.848890
21
194.704633
0
LINE
8
Capa 1
10
237.848890
20
194.704633
11
237.951550
21
194.358033
0
LINE
8
Capa 1
10
237.951550
20
194.358033
11
238.037250
21
194.006663
0
LINE
8
Capa 1
10
238.037250
20
194.006663
11
238.106050
21
193.651593
0
LINE
8
Capa 1
10
238.106050
20
193.651593
11
238.157350
21
193.293613
0
LINE
8
Capa 1
10
238.157350
20
193.293613
11
238.190950
21
192.933513
0
LINE
8
Capa 1
10
238.190950
20
192.933513
11
238.207350
21
192.572353
0
LINE
8
Capa 1
10
238.207350
20
192.572353
11
238.206350
21
192.210673
0
LINE
8
Capa 1
10
238.206350
20
192.210673
11
238.187550
21
191.849513
0
LINE
8
Capa 1
10
238.187550
20
191.849513
11
238.151050
21
191.489683
0
LINE
8
Capa 1
10
238.151050
20
191.489683
11
238.097350
21
191.132233
0
LINE
8
Capa 1
10
238.097350
20
191.132233
11
238.026150
21
190.777693
0
LINE
8
Capa 1
10
238.026150
20
190.777693
11
237.937750
21
190.426853
0
LINE
8
Capa 1
10
237.937750
20
190.426853
11
237.832710
21
190.081043
0
LINE
8
Capa 1
10
237.832710
20
190.081043
11
237.710740
21
189.740523
0
LINE
8
Capa 1
10
237.710740
20
189.740523
11
236.993106
21
188.326254
0
LINE
8
Capa 1
10
236.993106
20
188.326254
11
236.008425
21
186.971297
0
LINE
8
Capa 1
10
236.008425
20
186.971297
11
234.812979
21
185.690810
0
LINE
8
Capa 1
10
234.812979
20
185.690810
11
233.463050
21
184.499952
0
LINE
8
Capa 1
10
233.463050
20
184.499952
11
230.524870
21
182.447757
0
LINE
8
Capa 1
10
230.524870
20
182.447757
11
227.644140
21
180.935983
0
LINE
8
Capa 1
10
227.644140
20
180.935983
11
229.798180
21
179.773401
0
LINE
8
Capa 1
10
229.798180
20
179.773401
11
230.760306
21
179.046979
0
LINE
8
Capa 1
10
230.760306
20
179.046979
11
231.624800
21
178.156003
0
LINE
8
Capa 1
10
231.624800
20
178.156003
11
232.362293
21
177.035476
0
LINE
8
Capa 1
10
232.362293
20
177.035476
11
232.839039
21
175.816227
0
LINE
8
Capa 1
10
232.839039
20
175.816227
11
233.060692
21
174.523258
0
LINE
8
Capa 1
10
233.060692
20
174.523258
11
233.032910
21
173.181573
0
LINE
8
Capa 1
10
233.032910
20
173.181573
11
232.734441
21
171.722206
0
LINE
8
Capa 1
10
232.734441
20
171.722206
11
232.175527
21
170.216924
0
LINE
8
Capa 1
10
232.175527
20
170.216924
11
231.384063
21
168.678881
0
LINE
8
Capa 1
10
231.384063
20
168.678881
11
230.387945
21
167.121234
0
LINE
8
Capa 1
10
230.387945
20
167.121234
11
227.893332
21
163.999748
0
LINE
8
Capa 1
10
227.893332
20
163.999748
11
224.914852
21
160.957713
0
LINE
8
Capa 1
10
224.914852
20
160.957713
11
221.675674
21
158.100373
0
LINE
8
Capa 1
10
221.675674
20
158.100373
11
218.398963
21
155.532972
0
LINE
8
Capa 1
10
218.398963
20
155.532972
11
215.307887
21
153.360757
0
LINE
8
Capa 1
10
215.307887
20
153.360757
11
212.625610
21
151.688973
0
LINE
8
Capa 1
10
212.625610
20
151.688973
11
207.045550
21
148.635153
0
LINE
8
Capa 1
10
207.045550
20
148.635153
11
203.641716
21
146.950452
0
LINE
8
Capa 1
10
203.641716
20
146.950452
11
201.994431
21
146.022885
0
LINE
8
Capa 1
10
201.994431
20
146.022885
11
200.434930
21
144.930193
0
LINE
8
Capa 1
10
200.434930
20
144.930193
11
200.592620
21
144.946293
0
LINE
8
Capa 1
10
200.592620
20
144.946293
11
202.749109
21
144.985540
0
LINE
8
Capa 1
10
202.749109
20
144.985540
11
204.836342
21
144.662988
0
LINE
8
Capa 1
10
204.836342
20
144.662988
11
206.807390
21
143.934333
0
LINE
8
Capa 1
10
206.807390
20
143.934333
11
208.615320
21
142.755273
0
LINE
8
Capa 1
10
208.615320
20
142.755273
11
209.878262
21
141.453356
0
LINE
8
Capa 1
10
209.878262
20
141.453356
11
210.815097
21
139.946623
0
LINE
8
Capa 1
10
210.815097
20
139.946623
11
211.434086
21
138.277815
0
LINE
8
Capa 1
10
211.434086
20
138.277815
11
211.743490
21
136.489673
0
LINE
8
Capa 1
10
211.743490
20
136.489673
11
211.779486
21
135.078109
0
LINE
8
Capa 1
10
211.779486
20
135.078109
11
211.651901
21
133.684671
0
LINE
8
Capa 1
10
211.651901
20
133.684671
11
210.953442
21
130.985685
0
LINE
8
Capa 1
10
210.953442
20
130.985685
11
209.743015
21
128.459744
0
LINE
8
Capa 1
10
209.743015
20
128.459744
11
208.115520
21
126.173873
0
LINE
8
Capa 1
10
208.115520
20
126.173873
11
206.399157
21
124.329884
0
LINE
8
Capa 1
10
206.399157
20
124.329884
11
204.534685
21
122.652730
0
LINE
8
Capa 1
10
204.534685
20
122.652730
11
200.490500
21
119.667763
0
LINE
8
Capa 1
10
200.490500
20
119.667763
11
197.094229
21
117.557149
0
LINE
8
Capa 1
10
197.094229
20
117.557149
11
193.634625
21
115.712302
0
LINE
8
Capa 1
10
193.634625
20
115.712302
11
190.108999
21
114.106616
0
LINE
8
Capa 1
10
190.108999
20
114.106616
11
186.514661
21
112.713483
0
LINE
8
Capa 1
10
186.514661
20
112.713483
11
182.848922
21
111.506298
0
LINE
8
Capa 1
10
182.848922
20
111.506298
11
179.109092
21
110.458454
0
LINE
8
Capa 1
10
179.109092
20
110.458454
11
171.396400
21
108.734363
0
LINE
8
Capa 1
10
171.396400
20
108.734363
11
166.428156
21
107.824069
0
LINE
8
Capa 1
10
166.428156
20
107.824069
11
161.421610
21
107.170943
0
LINE
8
Capa 1
10
161.421610
20
107.170943
11
163.457320
21
105.935073
0
LINE
8
Capa 1
10
163.457320
20
105.935073
11
164.618850
21
105.021437
0
LINE
8
Capa 1
10
164.618850
20
105.021437
11
165.600076
21
103.959169
0
LINE
8
Capa 1
10
165.600076
20
103.959169
11
166.335687
21
102.726046
0
LINE
8
Capa 1
10
166.335687
20
102.726046
11
166.760370
21
101.299843
0
LINE
8
Capa 1
10
166.760370
20
101.299843
11
166.806258
21
99.696542
0
LINE
8
Capa 1
10
166.806258
20
99.696542
11
166.434251
21
98.227683
0
LINE
8
Capa 1
10
166.434251
20
98.227683
11
165.691557
21
96.885752
0
LINE
8
Capa 1
10
165.691557
20
96.885752
11
164.625382
21
95.663234
0
LINE
8
Capa 1
10
164.625382
20
95.663234
11
163.282932
21
94.552615
0
LINE
8
Capa 1
10
163.282932
20
94.552615
11
161.711414
21
93.546379
0
LINE
8
Capa 1
10
161.711414
20
93.546379
11
158.069997
21
91.817002
0
LINE
8
Capa 1
10
158.069997
20
91.817002
11
154.078784
21
90.414986
0
LINE
8
Capa 1
10
154.078784
20
90.414986
11
150.115424
21
89.280215
0
LINE
8
Capa 1
10
150.115424
20
89.280215
11
143.782870
21
87.571943
0
LINE
8
Capa 1
10
143.782870
20
87.571943
11
140.887217
21
86.566494
0
LINE
8
Capa 1
10
140.887217
20
86.566494
11
137.995807
21
85.399120
0
LINE
8
Capa 1
10
137.995807
20
85.399120
11
135.180054
21
84.066150
0
LINE
8
Capa 1
10
135.180054
20
84.066150
11
132.511370
21
82.563913
0
LINE
8
Capa 1
10
132.511370
20
82.563913
11
130.903447
21
81.466606
0
LINE
8
Capa 1
10
130.903447
20
81.466606
11
129.399436
21
80.243316
0
LINE
8
Capa 1
10
129.399436
20
80.243316
11
126.653769
21
77.498067
0
LINE
8
Capa 1
10
126.653769
20
77.498067
11
124.175602
21
74.486715
0
LINE
8
Capa 1
10
124.175602
20
74.486715
11
121.866170
21
71.367813
0
LINE
8
Capa 1
10
121.866170
20
71.367813
11
122.005214
21
68.633674
0
LINE
8
Capa 1
10
122.005214
20
68.633674
11
122.272830
21
65.901523
0
LINE
8
Capa 1
10
122.272830
20
65.901523
11
123.233010
21
55.005423
0
LINE
8
Capa 1
10
123.233010
20
55.005423
11
123.354484
21
53.431370
0
LINE
8
Capa 1
10
123.354484
20
53.431370
11
123.294589
21
51.942572
0
LINE
8
Capa 1
10
123.294589
20
51.942572
11
122.908561
21
50.525359
0
LINE
8
Capa 1
10
122.908561
20
50.525359
11
122.051640
21
49.166063
0
LINE
8
Capa 1
10
122.051640
20
49.166063
11
121.276012
21
48.423049
0
LINE
8
Capa 1
10
121.276012
20
48.423049
11
120.409672
21
47.891768
0
LINE
8
Capa 1
10
120.409672
20
47.891768
11
119.450314
21
47.551879
0
LINE
8
Capa 1
10
119.450314
20
47.551879
11
118.395630
21
47.383043
0
LINE
8
Capa 1
10
118.395630
20
47.383043
11
117.971500
21
47.402343
0
LINE
8
Capa 1
10
117.971500
20
47.402343
11
116.971075
21
47.558235
0
LINE
8
Capa 1
10
116.971075
20
47.558235
11
116.034919
21
47.901072
0
LINE
8
Capa 1
10
116.034919
20
47.901072
11
115.185925
21
48.424491
0
LINE
8
Capa 1
10
115.185925
20
48.424491
11
114.446990
21
49.122133
0
LINE
8
Capa 1
10
114.446990
20
49.122133
11
113.637759
21
50.366603
0
LINE
8
Capa 1
10
113.637759
20
50.366603
11
113.233340
21
51.789663
0
LINE
8
Capa 1
10
113.233340
20
51.789663
11
113.155755
21
54.025826
0
LINE
8
Capa 1
10
113.155755
20
54.025826
11
113.345661
21
56.496567
0
LINE
8
Capa 1
10
113.345661
20
56.496567
11
113.927880
21
61.285033
0
LINE
8
Capa 1
10
113.927880
20
61.285033
11
114.867940
21
72.160733
0
LINE
8
Capa 1
10
114.867940
20
72.160733
11
111.630621
21
76.016424
0
LINE
8
Capa 1
10
111.630621
20
76.016424
11
108.464141
21
79.187311
0
LINE
8
Capa 1
10
108.464141
20
79.187311
11
105.274168
21
81.784303
0
LINE
8
Capa 1
10
105.274168
20
81.784303
11
101.966371
21
83.918308
0
LINE
8
Capa 1
10
101.966371
20
83.918308
11
98.446421
21
85.700235
0
LINE
8
Capa 1
10
98.446421
20
85.700235
11
94.619986
21
87.240992
0
LINE
8
Capa 1
10
94.619986
20
87.240992
11
90.392736
21
88.651489
0
LINE
8
Capa 1
10
90.392736
20
88.651489
11
85.670340
21
90.042633
0
LINE
8
Capa 1
10
85.670340
20
90.042633
11
80.229676
21
91.576027
0
LINE
8
Capa 1
10
80.229676
20
91.576027
11
77.556493
21
92.503878
0
LINE
8
Capa 1
10
77.556493
20
92.503878
11
75.003940
21
93.675363
0
LINE
8
Capa 1
10
75.003940
20
93.675363
11
73.550364
21
94.555978
0
LINE
8
Capa 1
10
73.550364
20
94.555978
11
72.199822
21
95.643068
0
LINE
8
Capa 1
10
72.199822
20
95.643068
11
71.099807
21
96.951813
0
LINE
8
Capa 1
10
71.099807
20
96.951813
11
70.397810
21
98.497393
0
LINE
8
Capa 1
10
70.397810
20
98.497393
11
70.226066
21
99.482664
0
LINE
8
Capa 1
10
70.226066
20
99.482664
11
70.240822
21
100.440778
0
LINE
8
Capa 1
10
70.240822
20
100.440778
11
70.424460
21
101.362757
0
LINE
8
Capa 1
10
70.424460
20
101.362757
11
70.759364
21
102.239627
0
LINE
8
Capa 1
10
70.759364
20
102.239627
11
71.812496
21
103.822129
0
LINE
8
Capa 1
10
71.812496
20
103.822129
11
73.259280
21
105.116473
0
LINE
8
Capa 1
10
73.259280
20
105.116473
11
74.540824
21
105.902418
0
LINE
8
Capa 1
10
74.540824
20
105.902418
11
75.155984
21
106.356881
0
LINE
8
Capa 1
10
75.155984
20
106.356881
11
75.606660
21
106.897913
0
LINE
8
Capa 1
10
75.606660
20
106.897913
11
75.300151
21
107.259978
0
LINE
8
Capa 1
10
75.300151
20
107.259978
11
74.631846
21
107.557991
0
LINE
8
Capa 1
10
74.631846
20
107.557991
11
72.643262
21
107.989320
0
LINE
8
Capa 1
10
72.643262
20
107.989320
11
69.092090
21
108.385403
0
LINE
8
Capa 1
10
69.092090
20
108.385403
11
63.223795
21
109.254294
0
LINE
8
Capa 1
10
63.223795
20
109.254294
11
57.419190
21
110.470053
0
LINE
8
Capa 1
10
57.419190
20
110.470053
11
53.665899
21
111.510775
0
LINE
8
Capa 1
10
53.665899
20
111.510775
11
49.844522
21
112.785103
0
LINE
8
Capa 1
10
49.844522
20
112.785103
11
46.025415
21
114.297524
0
LINE
8
Capa 1
10
46.025415
20
114.297524
11
42.278930
21
116.052525
0
LINE
8
Capa 1
10
42.278930
20
116.052525
11
38.675421
21
118.054592
0
LINE
8
Capa 1
10
38.675421
20
118.054592
11
35.285242
21
120.308212
0
LINE
8
Capa 1
10
35.285242
20
120.308212
11
32.178747
21
122.817870
0
LINE
8
Capa 1
10
32.178747
20
122.817870
11
29.426290
21
125.588053
0
LINE
8
Capa 1
10
29.426290
20
125.588053
11
27.486072
21
128.093360
0
LINE
8
Capa 1
10
27.486072
20
128.093360
11
25.925885
21
130.875485
0
LINE
8
Capa 1
10
25.925885
20
130.875485
11
25.349145
21
132.352931
0
LINE
8
Capa 1
10
25.349145
20
132.352931
11
24.940423
21
133.878670
0
LINE
8
Capa 1
10
24.940423
20
133.878670
11
24.724056
21
135.445734
0
LINE
8
Capa 1
10
24.724056
20
135.445734
11
24.724380
21
137.047153
0
LINE
8
Capa 1
10
24.724380
20
137.047153
11
25.006553
21
138.765824
0
LINE
8
Capa 1
10
25.006553
20
138.765824
11
25.600843
21
140.432728
0
LINE
8
Capa 1
10
25.600843
20
140.432728
11
26.499784
21
141.948770
0
LINE
8
Capa 1
10
26.499784
20
141.948770
11
27.695910
21
143.214853
0
LINE
8
Capa 1
10
27.695910
20
143.214853
11
28.674340
21
143.865514
0
LINE
8
Capa 1
10
28.674340
20
143.865514
11
29.773922
21
144.336595
0
LINE
8
Capa 1
10
29.773922
20
144.336595
11
32.206989
21
144.840255
0
LINE
8
Capa 1
10
32.206989
20
144.840255
11
34.736001
21
144.926304
0
LINE
8
Capa 1
10
34.736001
20
144.926304
11
37.101850
21
144.795213
0
LINE
8
Capa 1
10
37.101850
20
144.795213
11
32.167241
21
147.268768
0
LINE
8
Capa 1
10
32.167241
20
147.268768
11
27.193730
21
149.682593
0
LINE
8
Capa 1
10
27.193730
20
149.682593
11
24.111202
21
151.390319
0
LINE
8
Capa 1
10
24.111202
20
151.390319
11
20.894763
21
153.360404
0
LINE
8
Capa 1
10
20.894763
20
153.360404
11
17.651317
21
155.569158
0
LINE
8
Capa 1
10
17.651317
20
155.569158
11
14.487767
21
157.992894
0
LINE
8
Capa 1
10
14.487767
20
157.992894
11
11.511020
21
160.607924
0
LINE
8
Capa 1
10
11.511020
20
160.607924
11
8.827978
21
163.390559
0
LINE
8
Capa 1
10
8.827978
20
163.390559
11
6.545547
21
166.317111
0
LINE
8
Capa 1
10
6.545547
20
166.317111
11
4.770630
21
169.363893
0
LINE
8
Capa 1
10
4.770630
20
169.363893
11
4.084538
21
171.060420
0
LINE
8
Capa 1
10
4.084538
20
171.060420
11
3.665445
21
172.833868
0
LINE
8
Capa 1
10
3.665445
20
172.833868
11
3.609621
21
174.638621
0
LINE
8
Capa 1
10
3.609621
20
174.638621
11
4.013339
21
176.429063
0
LINE
8
Capa 1
10
4.013339
20
176.429063
11
4.877578
21
178.023724
0
LINE
8
Capa 1
10
4.877578
20
178.023724
11
6.057057
21
179.246043
0
LINE
8
Capa 1
10
6.057057
20
179.246043
11
7.483010
21
180.201812
0
LINE
8
Capa 1
10
7.483010
20
180.201812
11
9.086669
21
180.996823
0
LINE
8
Capa 1
10
9.086669
20
180.996823
11
6.049788
21
182.774354
0
LINE
8
Capa 1
10
6.049788
20
182.774354
11
2.955671
21
184.922118
0
LINE
8
Capa 1
10
2.955671
20
184.922118
11
1.549942
21
186.154604
0
LINE
8
Capa 1
10
1.549942
20
186.154604
11
0.325253
21
187.503367
0
LINE
8
Capa 1
10
0.325253
20
187.503367
11
-0.653276
21
188.976315
0
LINE
8
Capa 1
10
-0.653276
20
188.976315
11
-1.320531
21
190.581353
0
LINE
8
Capa 1
10
-1.320531
20
190.581353
11
-1.411861
21
190.918703
0
LINE
8
Capa 1
10
-1.411861
20
190.918703
11
-1.486531
21
191.260013
0
LINE
8
Capa 1
10
-1.486531
20
191.260013
11
-1.544341
21
191.604503
0
LINE
8
Capa 1
10
-1.544341
20
191.604503
11
-1.585171
21
191.951633
0
LINE
8
Capa 1
10
-1.585171
20
191.951633
11
-1.608901
21
192.300093
0
LINE
8
Capa 1
10
-1.608901
20
192.300093
11
-1.615501
21
192.649343
0
LINE
8
Capa 1
10
-1.615501
20
192.649343
11
-1.604921
21
192.998593
0
LINE
8
Capa 1
10
-1.604921
20
192.998593
11
-1.577221
21
193.347043
0
LINE
8
Capa 1
10
-1.577221
20
193.347043
11
-1.532431
21
193.693383
0
LINE
8
Capa 1
10
-1.532431
20
193.693383
11
-1.470701
21
194.037343
0
LINE
8
Capa 1
10
-1.470701
20
194.037343
11
-1.392151
21
194.377863
0
LINE
8
Capa 1
10
-1.392151
20
194.377863
11
-1.296981
21
194.713883
0
LINE
8
Capa 1
10
-1.296981
20
194.713883
11
-1.185406
21
195.045143
0
LINE
8
Capa 1
10
-1.185406
20
195.045143
11
-1.057718
21
195.370313
0
LINE
8
Capa 1
10
-1.057718
20
195.370313
11
-0.914208
21
195.688873
0
LINE
8
Capa 1
10
-0.914208
20
195.688873
11
-0.755220
21
196.000023
0
LINE
8
Capa 1
10
-0.755220
20
196.000023
11
0.340561
21
197.481146
0
LINE
8
Capa 1
10
0.340561
20
197.481146
11
1.706141
21
198.590694
0
LINE
8
Capa 1
10
1.706141
20
198.590694
11
3.280485
21
199.412507
0
LINE
8
Capa 1
10
3.280485
20
199.412507
11
5.002560
21
200.030423
0
LINE
8
Capa 1
10
5.002560
20
200.030423
11
3.994365
21
202.178409
0
LINE
8
Capa 1
10
3.994365
20
202.178409
11
3.133650
21
204.388113
0
LINE
8
Capa 1
10
3.133650
20
204.388113
11
2.679235
21
206.084205
0
LINE
8
Capa 1
10
2.679235
20
206.084205
11
2.288081
21
208.185136
0
LINE
8
Capa 1
10
2.288081
20
208.185136
11
1.813824
21
213.047492
0
LINE
8
Capa 1
10
1.813824
20
213.047492
11
1.789853
21
215.531905
0
LINE
8
Capa 1
10
1.789853
20
215.531905
11
1.947409
21
217.867133
0
LINE
8
Capa 1
10
1.947409
20
217.867133
11
2.316059
21
219.914671
0
LINE
8
Capa 1
10
2.316059
20
219.914671
11
2.925370
21
221.536013
0
LINE
8
Capa 1
10
2.925370
20
221.536013
11
3.726712
21
222.470555
0
LINE
8
Capa 1
10
3.726712
20
222.470555
11
4.844130
21
223.002073
0
LINE
8
Capa 1
10
4.844130
20
223.002073
11
6.909579
21
223.370765
0
LINE
8
Capa 1
10
6.909579
20
223.370765
11
9.296043
21
223.408690
0
LINE
8
Capa 1
10
9.296043
20
223.408690
11
11.888112
21
223.164121
0
LINE
8
Capa 1
10
11.888112
20
223.164121
11
14.570377
21
222.685332
0
LINE
8
Capa 1
10
14.570377
20
222.685332
11
17.227431
21
222.020594
0
LINE
8
Capa 1
10
17.227431
20
222.020594
11
19.743863
21
221.218182
0
LINE
8
Capa 1
10
19.743863
20
221.218182
11
22.004266
21
220.326367
0
LINE
8
Capa 1
10
22.004266
20
220.326367
11
23.893230
21
219.393423
0
LINE
8
Capa 1
10
23.893230
20
219.393423
11
23.735903
21
221.533144
0
LINE
8
Capa 1
10
23.735903
20
221.533144
11
23.951440
21
223.660363
0
LINE
8
Capa 1
10
23.951440
20
223.660363
11
24.357468
21
224.826329
0
LINE
8
Capa 1
10
24.357468
20
224.826329
11
24.979743
21
225.878464
0
LINE
8
Capa 1
10
24.979743
20
225.878464
11
25.802045
21
226.780729
0
LINE
8
Capa 1
10
25.802045
20
226.780729
11
26.808150
21
227.497083
0
LINE
8
Capa 1
10
26.808150
20
227.497083
11
28.130023
21
228.031810
0
LINE
8
Capa 1
10
28.130023
20
228.031810
11
29.526610
21
228.246482
0
LINE
8
Capa 1
10
29.526610
20
228.246482
11
30.946612
21
228.183292
0
LINE
8
Capa 1
10
30.946612
20
228.183292
11
32.338730
21
227.884433
0
LINE
8
Capa 1
10
32.338730
20
227.884433
11
34.429445
21
227.038173
0
LINE
8
Capa 1
10
34.429445
20
227.038173
11
36.259276
21
225.861127
0
LINE
8
Capa 1
10
36.259276
20
225.861127
11
37.864998
21
224.412613
0
LINE
8
Capa 1
10
37.864998
20
224.412613
11
39.283384
21
222.751948
0
LINE
8
Capa 1
10
39.283384
20
222.751948
11
40.551206
21
220.938450
0
LINE
8
Capa 1
10
40.551206
20
220.938450
11
41.705240
21
219.031437
0
LINE
8
Capa 1
10
41.705240
20
219.031437
11
43.819030
21
215.174133
0
LINE
8
Capa 1
10
43.819030
20
215.174133
11
44.484457
21
216.841013
0
LINE
8
Capa 1
10
44.484457
20
216.841013
11
45.168426
21
217.886566
0
LINE
8
Capa 1
10
45.168426
20
217.886566
11
46.025953
21
218.773863
0
LINE
8
Capa 1
10
46.025953
20
218.773863
11
47.040693
21
219.470360
0
LINE
8
Capa 1
10
47.040693
20
219.470360
11
48.196297
21
219.943513
0
LINE
8
Capa 1
10
48.196297
20
219.943513
11
49.844310
21
220.240882
0
LINE
8
Capa 1
10
49.844310
20
220.240882
11
51.430969
21
220.191734
0
LINE
8
Capa 1
10
51.430969
20
220.191734
11
52.956547
21
219.831240
0
LINE
8
Capa 1
10
52.956547
20
219.831240
11
54.421314
21
219.194572
0
LINE
8
Capa 1
10
54.421314
20
219.194572
11
55.825544
21
218.316902
0
LINE
8
Capa 1
10
55.825544
20
218.316902
11
57.169510
21
217.233400
0
LINE
8
Capa 1
10
57.169510
20
217.233400
11
59.677734
21
214.589590
0
LINE
8
Capa 1
10
59.677734
20
214.589590
11
61.948167
21
211.544515
0
LINE
8
Capa 1
10
61.948167
20
211.544515
11
63.982986
21
208.379545
0
LINE
8
Capa 1
10
63.982986
20
208.379545
11
67.354497
21
202.815413
0
LINE
8
Capa 1
10
67.354497
20
202.815413
11
69.245020
21
199.982850
0
LINE
8
Capa 1
10
69.245020
20
199.982850
11
71.362011
21
197.187195
0
LINE
8
Capa 1
10
71.362011
20
197.187195
11
73.761179
21
194.669150
0
LINE
8
Capa 1
10
73.761179
20
194.669150
11
75.083990
21
193.589449
0
LINE
8
Capa 1
10
75.083990
20
193.589449
11
76.498237
21
192.669413
0
LINE
8
Capa 1
10
76.498237
20
192.669413
11
73.704950
21
195.553122
0
LINE
8
Capa 1
10
73.704950
20
195.553122
11
71.253072
21
198.692122
0
LINE
8
Capa 1
10
71.253072
20
198.692122
11
69.232894
21
202.114493
0
LINE
8
Capa 1
10
69.232894
20
202.114493
11
68.412909
21
203.940717
0
LINE
8
Capa 1
10
68.412909
20
203.940717
11
67.734707
21
205.848313
0
LINE
8
Capa 1
10
67.734707
20
205.848313
11
67.103060
21
208.281630
0
LINE
8
Capa 1
10
67.103060
20
208.281630
11
66.770731
21
210.842619
0
LINE
8
Capa 1
10
66.770731
20
210.842619
11
66.776024
21
212.124536
0
LINE
8
Capa 1
10
66.776024
20
212.124536
11
66.927202
21
213.382625
0
LINE
8
Capa 1
10
66.927202
20
213.382625
11
67.247951
21
214.598305
0
LINE
8
Capa 1
10
67.247951
20
214.598305
11
67.761957
21
215.752993
0
LINE
8
Capa 1
10
67.761957
20
215.752993
11
68.620046
21
216.970562
0
LINE
8
Capa 1
10
68.620046
20
216.970562
11
69.687560
21
217.940830
0
LINE
8
Capa 1
10
69.687560
20
217.940830
11
70.934413
21
218.670990
0
LINE
8
Capa 1
10
70.934413
20
218.670990
11
72.330517
21
219.168233
0
LINE
8
Capa 1
10
72.330517
20
219.168233
11
73.688688
21
219.420198
0
LINE
8
Capa 1
10
73.688688
20
219.420198
11
75.046366
21
219.478730
0
LINE
8
Capa 1
10
75.046366
20
219.478730
11
76.395468
21
219.364882
0
LINE
8
Capa 1
10
76.395468
20
219.364882
11
77.727911
21
219.099706
0
LINE
8
Capa 1
10
77.727911
20
219.099706
11
80.310484
21
218.199586
0
LINE
8
Capa 1
10
80.310484
20
218.199586
11
82.729417
21
216.946793
0
LINE
8
Capa 1
10
82.729417
20
216.946793
11
80.917024
21
219.466090
0
LINE
8
Capa 1
10
80.917024
20
219.466090
11
79.053827
21
221.960383
0
LINE
8
Capa 1
10
79.053827
20
221.960383
11
76.343902
21
226.218953
0
LINE
8
Capa 1
10
76.343902
20
226.218953
11
73.895147
21
230.763648
0
LINE
8
Capa 1
10
73.895147
20
230.763648
11
71.851850
21
235.495910
0
LINE
8
Capa 1
10
71.851850
20
235.495910
11
71.027337
21
237.901580
0
LINE
8
Capa 1
10
71.027337
20
237.901580
11
70.358297
21
240.317183
0
LINE
8
Capa 1
10
70.358297
20
240.317183
11
69.473067
21
244.388391
0
LINE
8
Capa 1
10
69.473067
20
244.388391
11
69.156202
21
246.489659
0
LINE
8
Capa 1
10
69.156202
20
246.489659
11
68.990098
21
248.600290
0
LINE
8
Capa 1
10
68.990098
20
248.600290
11
69.024950
21
250.694477
0
LINE
8
Capa 1
10
69.024950
20
250.694477
11
69.310952
21
252.746411
0
LINE
8
Capa 1
10
69.310952
20
252.746411
11
69.898299
21
254.730282
0
LINE
8
Capa 1
10
69.898299
20
254.730282
11
70.837187
21
256.620283
0
LINE
8
Capa 1
10
70.837187
20
256.620283
11
72.203597
21
258.474257
0
LINE
8
Capa 1
10
72.203597
20
258.474257
11
73.895866
21
260.110370
0
LINE
8
Capa 1
10
73.895866
20
260.110370
11
75.852208
21
261.393613
0
LINE
8
Capa 1
10
75.852208
20
261.393613
11
78.010837
21
262.188973
0
LINE
8
Capa 1
10
78.010837
20
262.188973
11
79.213691
21
262.378508
0
LINE
8
Capa 1
10
79.213691
20
262.378508
11
80.405634
21
262.411140
0
LINE
8
Capa 1
10
80.405634
20
262.411140
11
82.739833
21
262.064089
0
LINE
8
Capa 1
10
82.739833
20
262.064089
11
84.979527
21
261.264600
0
LINE
8
Capa 1
10
84.979527
20
261.264600
11
87.090807
21
260.129453
0
LINE
8
Capa 1
10
87.090807
20
260.129453
11
85.903357
21
264.707543
0
LINE
8
Capa 1
10
85.903357
20
264.707543
11
85.256794
21
268.470701
0
LINE
8
Capa 1
10
85.256794
20
268.470701
11
85.077571
21
270.468138
0
LINE
8
Capa 1
10
85.077571
20
270.468138
11
85.041113
21
272.486792
0
LINE
8
Capa 1
10
85.041113
20
272.486792
11
85.182468
21
274.484646
0
LINE
8
Capa 1
10
85.182468
20
274.484646
11
85.536682
21
276.419683
0
LINE
8
Capa 1
10
85.536682
20
276.419683
11
86.138799
21
278.249888
0
LINE
8
Capa 1
10
86.138799
20
278.249888
11
87.023867
21
279.933243
0
LINE
8
Capa 1
10
87.023867
20
279.933243
11
88.029651
21
281.185998
0
LINE
8
Capa 1
10
88.029651
20
281.185998
11
89.236053
21
282.178897
0
LINE
8
Capa 1
10
89.236053
20
282.178897
11
90.621047
21
282.905492
0
LINE
8
Capa 1
10
90.621047
20
282.905492
11
92.162607
21
283.359333
0
LINE
8
Capa 1
10
92.162607
20
283.359333
11
93.423010
21
283.516145
0
LINE
8
Capa 1
10
93.423010
20
283.516145
11
94.621160
21
283.493405
0
LINE
8
Capa 1
10
94.621160
20
283.493405
11
95.767190
21
283.311201
0
LINE
8
Capa 1
10
95.767190
20
283.311201
11
96.871227
21
282.989624
0
LINE
8
Capa 1
10
96.871227
20
282.989624
11
98.993846
21
282.008710
0
LINE
8
Capa 1
10
98.993846
20
282.008710
11
101.070057
21
280.711383
0
LINE
8
Capa 1
10
101.070057
20
280.711383
11
102.796207
21
285.242533
0
LINE
8
Capa 1
10
102.796207
20
285.242533
11
104.960227
21
289.581543
0
LINE
8
Capa 1
10
104.960227
20
289.581543
11
107.314452
21
293.155752
0
LINE
8
Capa 1
10
107.314452
20
293.155752
11
110.575088
21
297.096270
0
LINE
8
Capa 1
10
110.575088
20
297.096270
11
112.391290
21
298.922389
0
LINE
8
Capa 1
10
112.391290
20
298.922389
11
114.249269
21
300.502275
0
LINE
8
Capa 1
10
114.249269
20
300.502275
11
116.087418
21
301.723328
0
LINE
8
Capa 1
10
116.087418
20
301.723328
11
117.844127
21
302.472943
0
LINE
8
Capa 1
10
117.844127
20
302.472943
11
117.844000
21
302.473000
0
LINE
8
Capa 1
10
112.321000
20
264.758000
11
113.011269
21
264.686047
0
LINE
8
Capa 1
10
113.011269
20
264.686047
11
113.665350
21
264.448054
0
LINE
8
Capa 1
10
113.665350
20
264.448054
11
114.925350
21
263.601050
0
LINE
8
Capa 1
10
114.925350
20
263.601050
11
116.093250
21
262.614694
0
LINE
8
Capa 1
10
116.093250
20
262.614694
11
117.666033
21
261.173109
0
LINE
8
Capa 1
10
117.666033
20
261.173109
11
119.049667
21
259.673151
0
LINE
8
Capa 1
10
119.049667
20
259.673151
11
120.264045
21
258.106053
0
LINE
8
Capa 1
10
120.264045
20
258.106053
11
121.329062
21
256.463048
0
LINE
8
Capa 1
10
121.329062
20
256.463048
11
123.090587
21
252.914242
0
LINE
8
Capa 1
10
123.090587
20
252.914242
11
124.493390
21
248.956594
0
LINE
8
Capa 1
10
124.493390
20
248.956594
11
126.471160
21
250.371124
0
LINE
8
Capa 1
10
126.471160
20
250.371124
11
127.611730
21
250.873540
0
LINE
8
Capa 1
10
127.611730
20
250.873540
11
128.806956
21
251.150484
0
LINE
8
Capa 1
10
128.806956
20
251.150484
11
130.027264
21
251.175309
0
LINE
8
Capa 1
10
130.027264
20
251.175309
11
131.243080
21
250.921367
0
LINE
8
Capa 1
10
131.243080
20
250.921367
11
132.327288
21
250.416320
0
LINE
8
Capa 1
10
132.327288
20
250.416320
11
133.270405
21
249.694517
0
LINE
8
Capa 1
10
133.270405
20
249.694517
11
134.060589
21
248.792518
0
LINE
8
Capa 1
10
134.060589
20
248.792518
11
134.686000
21
247.746887
0
LINE
8
Capa 1
10
134.686000
20
247.746887
11
135.261595
21
246.232926
0
LINE
8
Capa 1
10
135.261595
20
246.232926
11
135.611804
21
244.580181
0
LINE
8
Capa 1
10
135.611804
20
244.580181
11
135.763734
21
242.833622
0
LINE
8
Capa 1
10
135.763734
20
242.833622
11
135.744493
21
241.038219
0
LINE
8
Capa 1
10
135.744493
20
241.038219
11
135.300922
21
237.480767
0
LINE
8
Capa 1
10
135.300922
20
237.480767
11
134.497950
21
234.267587
0
LINE
8
Capa 1
10
134.497950
20
234.267587
11
135.731885
21
234.948965
0
LINE
8
Capa 1
10
135.731885
20
234.948965
11
137.023810
21
235.500537
0
LINE
8
Capa 1
10
137.023810
20
235.500537
11
138.322286
21
235.821525
0
LINE
8
Capa 1
10
138.322286
20
235.821525
11
139.644395
21
235.889244
0
LINE
8
Capa 1
10
139.644395
20
235.889244
11
140.950161
21
235.687309
0
LINE
8
Capa 1
10
140.950161
20
235.687309
11
142.199610
21
235.199337
0
LINE
8
Capa 1
10
142.199610
20
235.199337
11
143.556465
21
234.243189
0
LINE
8
Capa 1
10
143.556465
20
234.243189
11
144.627369
21
233.012959
0
LINE
8
Capa 1
10
144.627369
20
233.012959
11
145.448333
21
231.576176
0
LINE
8
Capa 1
10
145.448333
20
231.576176
11
146.055370
21
230.000367
0
LINE
8
Capa 1
10
146.055370
20
230.000367
11
146.614179
21
227.372545
0
LINE
8
Capa 1
10
146.614179
20
227.372545
11
146.696182
21
224.712491
0
LINE
8
Capa 1
10
146.696182
20
224.712491
11
146.373437
21
222.047586
0
LINE
8
Capa 1
10
146.373437
20
222.047586
11
145.718003
21
219.405213
0
LINE
8
Capa 1
10
145.718003
20
219.405213
11
144.801936
21
216.812753
0
LINE
8
Capa 1
10
144.801936
20
216.812753
11
143.697297
21
214.297587
0
LINE
8
Capa 1
10
143.697297
20
214.297587
11
141.210530
21
209.608667
0
LINE
8
Capa 1
10
141.210530
20
209.608667
11
139.420428
21
206.605101
0
LINE
8
Capa 1
10
139.420428
20
206.605101
11
137.720100
21
203.543717
0
LINE
8
Capa 1
10
137.720100
20
203.543717
11
140.021692
21
204.763199
0
LINE
8
Capa 1
10
140.021692
20
204.763199
11
141.230272
21
205.181833
0
LINE
8
Capa 1
10
141.230272
20
205.181833
11
142.522170
21
205.404187
0
LINE
8
Capa 1
10
142.522170
20
205.404187
11
143.631266
21
205.391694
0
LINE
8
Capa 1
10
143.631266
20
205.391694
11
144.701177
21
205.170187
0
LINE
8
Capa 1
10
144.701177
20
205.170187
11
145.702866
21
204.730187
0
LINE
8
Capa 1
10
145.702866
20
204.730187
11
146.607290
21
204.062217
0
LINE
8
Capa 1
10
146.607290
20
204.062217
11
147.383277
21
203.137862
0
LINE
8
Capa 1
10
147.383277
20
203.137862
11
147.934662
21
202.058609
0
LINE
8
Capa 1
10
147.934662
20
202.058609
11
148.272670
21
200.882281
0
LINE
8
Capa 1
10
148.272670
20
200.882281
11
148.408520
21
199.666697
0
LINE
8
Capa 1
10
148.408520
20
199.666697
11
148.250847
21
197.844077
0
LINE
8
Capa 1
10
148.250847
20
197.844077
11
147.715455
21
195.986459
0
LINE
8
Capa 1
10
147.715455
20
195.986459
11
146.879219
21
194.128468
0
LINE
8
Capa 1
10
146.879219
20
194.128468
11
145.819019
21
192.304729
0
LINE
8
Capa 1
10
145.819019
20
192.304729
11
143.334229
21
188.898509
0
LINE
8
Capa 1
10
143.334229
20
188.898509
11
140.876100
21
186.044797
0
LINE
8
Capa 1
10
140.876100
20
186.044797
11
142.144852
21
186.811251
0
LINE
8
Capa 1
10
142.144852
20
186.811251
11
143.299830
21
187.721339
0
LINE
8
Capa 1
10
143.299830
20
187.721339
11
145.330112
21
189.895817
0
LINE
8
Capa 1
10
145.330112
20
189.895817
11
147.090236
21
192.415020
0
LINE
8
Capa 1
10
147.090236
20
192.415020
11
148.703495
21
195.125739
0
LINE
8
Capa 1
10
148.703495
20
195.125739
11
150.293179
21
197.874766
0
LINE
8
Capa 1
10
150.293179
20
197.874766
11
151.982581
21
200.508891
0
LINE
8
Capa 1
10
151.982581
20
200.508891
11
153.894991
21
202.874904
0
LINE
8
Capa 1
10
153.894991
20
202.874904
11
154.973352
21
203.909491
0
LINE
8
Capa 1
10
154.973352
20
203.909491
11
156.153700
21
204.819597
0
LINE
8
Capa 1
10
156.153700
20
204.819597
11
157.117413
21
205.390503
0
LINE
8
Capa 1
10
157.117413
20
205.390503
11
158.150500
21
205.804229
0
LINE
8
Capa 1
10
158.150500
20
205.804229
11
159.232007
21
205.994856
0
LINE
8
Capa 1
10
159.232007
20
205.994856
11
160.340980
21
205.896467
0
LINE
8
Capa 1
10
160.340980
20
205.896467
11
161.487008
21
205.431798
0
LINE
8
Capa 1
10
161.487008
20
205.431798
11
162.427421
21
204.693046
0
LINE
8
Capa 1
10
162.427421
20
204.693046
11
163.213531
21
203.761344
0
LINE
8
Capa 1
10
163.213531
20
203.761344
11
163.896650
21
202.717827
0
LINE
8
Capa 1
10
163.896650
20
202.717827
11
165.198580
21
205.189644
0
LINE
8
Capa 1
10
165.198580
20
205.189644
11
166.703220
21
207.545677
0
LINE
8
Capa 1
10
166.703220
20
207.545677
11
168.066291
21
209.077626
0
LINE
8
Capa 1
10
168.066291
20
209.077626
11
169.662851
21
210.419954
0
LINE
8
Capa 1
10
169.662851
20
210.419954
11
171.457196
21
211.419679
0
LINE
8
Capa 1
10
171.457196
20
211.419679
11
172.417379
21
211.743258
0
LINE
8
Capa 1
10
172.417379
20
211.743258
11
173.413620
21
211.923817
0
LINE
8
Capa 1
10
173.413620
20
211.923817
11
174.280868
21
211.930174
0
LINE
8
Capa 1
10
174.280868
20
211.930174
11
175.119385
21
211.769179
0
LINE
8
Capa 1
10
175.119385
20
211.769179
11
175.907360
21
211.436884
0
LINE
8
Capa 1
10
175.907360
20
211.436884
11
176.622980
21
210.929337
0
LINE
8
Capa 1
10
176.622980
20
210.929337
11
177.505453
21
209.872604
0
LINE
8
Capa 1
10
177.505453
20
209.872604
11
178.024526
21
208.679874
0
LINE
8
Capa 1
10
178.024526
20
208.679874
11
178.294549
21
207.383371
0
LINE
8
Capa 1
10
178.294549
20
207.383371
11
178.429870
21
206.015317
0
LINE
8
Capa 1
10
178.429870
20
206.015317
11
179.166010
21
206.370744
0
LINE
8
Capa 1
10
179.166010
20
206.370744
11
180.431040
21
206.892644
0
LINE
8
Capa 1
10
180.431040
20
206.892644
11
181.724400
21
207.333486
0
LINE
8
Capa 1
10
181.724400
20
207.333486
11
183.041690
21
207.691935
0
LINE
8
Capa 1
10
183.041690
20
207.691935
11
184.377450
21
207.966304
0
LINE
8
Capa 1
10
184.377450
20
207.966304
11
185.727100
21
208.155637
0
LINE
8
Capa 1
10
185.727100
20
208.155637
11
187.085330
21
208.259370
0
LINE
8
Capa 1
10
187.085330
20
208.259370
11
188.447220
21
208.276940
0
LINE
8
Capa 1
10
188.447220
20
208.276940
11
189.807460
21
208.208520
0
LINE
8
Capa 1
10
189.807460
20
208.208520
11
190.838316
21
208.137747
0
LINE
8
Capa 1
10
190.838316
20
208.137747
11
191.830930
21
207.897306
0
LINE
8
Capa 1
10
191.830930
20
207.897306
11
192.320916
21
207.444094
0
LINE
8
Capa 1
10
192.320916
20
207.444094
11
192.615310
21
206.824786
0
LINE
8
Capa 1
10
192.615310
20
206.824786
11
193.055112
21
204.948677
0
LINE
8
Capa 1
10
193.055112
20
204.948677
11
193.211460
21
203.019566
0
LINE
8
Capa 1
10
193.211460
20
203.019566
11
193.090032
21
199.955689
0
LINE
8
Capa 1
10
193.090032
20
199.955689
11
192.562132
21
197.064373
0
LINE
8
Capa 1
10
192.562132
20
197.064373
11
191.686222
21
194.261179
0
LINE
8
Capa 1
10
191.686222
20
194.261179
11
190.520760
21
191.461666
0
LINE
8
Capa 1
10
190.520760
20
191.461666
11
191.862540
21
191.078466
0
LINE
8
Capa 1
10
191.862540
20
191.078466
11
192.840886
21
190.619064
0
LINE
8
Capa 1
10
192.840886
20
190.619064
11
193.730480
21
190.007355
0
LINE
8
Capa 1
10
193.730480
20
190.007355
11
194.479307
21
189.230689
0
LINE
8
Capa 1
10
194.479307
20
189.230689
11
195.035350
21
188.276416
0
LINE
8
Capa 1
10
195.035350
20
188.276416
11
195.129250
21
188.037006
0
LINE
8
Capa 1
10
195.129250
20
188.037006
11
195.211650
21
187.793246
0
LINE
8
Capa 1
10
195.211650
20
187.793246
11
195.282550
21
187.545716
0
LINE
8
Capa 1
10
195.282550
20
187.545716
11
195.341750
21
187.294786
0
LINE
8
Capa 1
10
195.341750
20
187.294786
11
195.389250
21
187.041206
0
LINE
8
Capa 1
10
195.389250
20
187.041206
11
195.424650
21
186.785546
0
LINE
8
Capa 1
10
195.424650
20
186.785546
11
195.447850
21
186.528376
0
LINE
8
Capa 1
10
195.447850
20
186.528376
11
195.459150
21
186.270446
0
LINE
8
Capa 1
10
195.459150
20
186.270446
11
195.458460
21
186.012146
0
LINE
8
Capa 1
10
195.458460
20
186.012146
11
195.445460
21
185.754216
0
LINE
8
Capa 1
10
195.445460
20
185.754216
11
195.420260
21
185.497236
0
LINE
8
Capa 1
10
195.420260
20
185.497236
11
195.383160
21
185.241956
0
LINE
8
Capa 1
10
195.383160
20
185.241956
11
195.333960
21
184.988746
0
LINE
8
Capa 1
10
195.333960
20
184.988746
11
195.272860
21
184.738196
0
LINE
8
Capa 1
10
195.272860
20
184.738196
11
195.200260
21
184.491226
0
LINE
8
Capa 1
10
195.200260
20
184.491226
11
195.116060
21
184.248036
0
LINE
8
Capa 1
10
195.116060
20
184.248036
11
194.620371
21
183.238009
0
LINE
8
Capa 1
10
194.620371
20
183.238009
11
193.940226
21
182.270341
0
LINE
8
Capa 1
10
193.940226
20
182.270341
11
192.182069
21
180.505385
0
LINE
8
Capa 1
10
192.182069
20
180.505385
11
190.152590
21
179.039774
0
LINE
8
Capa 1
10
190.152590
20
179.039774
11
188.162790
21
177.960116
0
LINE
8
Capa 1
10
188.162790
20
177.960116
11
189.650637
21
177.129835
0
LINE
8
Capa 1
10
189.650637
20
177.129835
11
190.912330
21
175.974736
0
LINE
8
Capa 1
10
190.912330
20
175.974736
11
191.421738
21
175.174494
0
LINE
8
Capa 1
10
191.421738
20
175.174494
11
191.751039
21
174.303746
0
LINE
8
Capa 1
10
191.751039
20
174.303746
11
191.904140
21
173.380348
0
LINE
8
Capa 1
10
191.904140
20
173.380348
11
191.884950
21
172.422156
0
LINE
8
Capa 1
10
191.884950
20
172.422156
11
191.678790
21
171.379922
0
LINE
8
Capa 1
10
191.678790
20
171.379922
11
191.292732
21
170.304895
0
LINE
8
Capa 1
10
191.292732
20
170.304895
11
190.057998
21
168.094045
0
LINE
8
Capa 1
10
190.057998
20
168.094045
11
188.334896
21
165.864769
0
LINE
8
Capa 1
10
188.334896
20
165.864769
11
186.277574
21
163.692232
0
LINE
8
Capa 1
10
186.277574
20
163.692232
11
184.040180
21
161.651598
0
LINE
8
Capa 1
10
184.040180
20
161.651598
11
181.776863
21
159.818031
0
LINE
8
Capa 1
10
181.776863
20
159.818031
11
177.789050
21
157.072756
0
LINE
8
Capa 1
10
177.789050
20
157.072756
11
173.934750
21
154.891816
0
LINE
8
Capa 1
10
173.934750
20
154.891816
11
171.583630
21
153.688651
0
LINE
8
Capa 1
10
171.583630
20
153.688651
11
170.445807
21
153.026212
0
LINE
8
Capa 1
10
170.445807
20
153.026212
11
169.368620
21
152.245846
0
LINE
8
Capa 1
10
169.368620
20
152.245846
11
169.477540
21
152.257346
0
LINE
8
Capa 1
10
169.477540
20
152.257346
11
170.967082
21
152.285376
0
LINE
8
Capa 1
10
170.967082
20
152.285376
11
172.408789
21
152.055020
0
LINE
8
Capa 1
10
172.408789
20
152.055020
11
173.770243
21
151.534636
0
LINE
8
Capa 1
10
173.770243
20
151.534636
11
175.019030
21
150.692586
0
LINE
8
Capa 1
10
175.019030
20
150.692586
11
175.891382
21
149.762796
0
LINE
8
Capa 1
10
175.891382
20
149.762796
11
176.538480
21
148.686735
0
LINE
8
Capa 1
10
176.538480
20
148.686735
11
176.966031
21
147.494924
0
LINE
8
Capa 1
10
176.966031
20
147.494924
11
177.179740
21
146.217886
0
LINE
8
Capa 1
10
177.179740
20
146.217886
11
177.116483
21
144.214643
0
LINE
8
Capa 1
10
177.116483
20
144.214643
11
176.634040
21
142.287111
0
LINE
8
Capa 1
10
176.634040
20
142.287111
11
175.797964
21
140.483156
0
LINE
8
Capa 1
10
175.797964
20
140.483156
11
174.673810
21
138.850646
0
LINE
8
Capa 1
10
174.673810
20
138.850646
11
173.488269
21
137.533723
0
LINE
8
Capa 1
10
173.488269
20
137.533723
11
172.200424
21
136.335952
0
LINE
8
Capa 1
10
172.200424
20
136.335952
11
169.406990
21
134.204186
0
LINE
8
Capa 1
10
169.406990
20
134.204186
11
167.061096
21
132.696851
0
LINE
8
Capa 1
10
167.061096
20
132.696851
11
164.671454
21
131.379320
0
LINE
8
Capa 1
10
164.671454
20
131.379320
11
162.236208
21
130.232590
0
LINE
8
Capa 1
10
162.236208
20
130.232590
11
159.753500
21
129.237661
0
LINE
8
Capa 1
10
159.753500
20
129.237661
11
154.638266
21
127.627197
0
LINE
8
Capa 1
10
154.638266
20
127.627197
11
149.310890
21
126.395916
0
LINE
8
Capa 1
10
149.310890
20
126.395916
11
145.879181
21
125.745811
0
LINE
8
Capa 1
10
145.879181
20
125.745811
11
142.421020
21
125.279366
0
LINE
8
Capa 1
10
142.421020
20
125.279366
11
143.827140
21
124.396746
0
LINE
8
Capa 1
10
143.827140
20
124.396746
11
144.629445
21
123.744254
0
LINE
8
Capa 1
10
144.629445
20
123.744254
11
145.307207
21
122.985615
0
LINE
8
Capa 1
10
145.307207
20
122.985615
11
145.815316
21
122.104956
0
LINE
8
Capa 1
10
145.815316
20
122.104956
11
146.108660
21
121.086406
0
LINE
8
Capa 1
10
146.108660
20
121.086406
11
146.140355
21
119.941379
0
LINE
8
Capa 1
10
146.140355
20
119.941379
11
145.883398
21
118.892367
0
LINE
8
Capa 1
10
145.883398
20
118.892367
11
145.370398
21
117.934003
0
LINE
8
Capa 1
10
145.370398
20
117.934003
11
144.633961
21
117.060920
0
LINE
8
Capa 1
10
144.633961
20
117.060920
11
143.706694
21
116.267752
0
LINE
8
Capa 1
10
143.706694
20
116.267752
11
142.621202
21
115.549131
0
LINE
8
Capa 1
10
142.621202
20
115.549131
11
140.105975
21
114.314066
0
LINE
8
Capa 1
10
140.105975
20
114.314066
11
137.349133
21
113.312791
0
LINE
8
Capa 1
10
137.349133
20
113.312791
11
134.611531
21
112.502372
0
LINE
8
Capa 1
10
134.611531
20
112.502372
11
130.237460
21
111.282366
0
LINE
8
Capa 1
10
130.237460
20
111.282366
11
126.240177
21
109.730607
0
LINE
8
Capa 1
10
126.240177
20
109.730607
11
124.295258
21
108.778641
0
LINE
8
Capa 1
10
124.295258
20
108.778641
11
122.451920
21
107.705786
0
LINE
8
Capa 1
10
122.451920
20
107.705786
11
120.302421
21
106.048490
0
LINE
8
Capa 1
10
120.302421
20
106.048490
11
118.405911
21
104.087920
0
LINE
8
Capa 1
10
118.405911
20
104.087920
11
116.694166
21
101.937305
0
LINE
8
Capa 1
10
116.694166
20
101.937305
11
115.098960
21
99.709876
0
LINE
8
Capa 1
10
115.098960
20
99.709876
11
115.195017
21
97.757246
0
LINE
8
Capa 1
10
115.195017
20
97.757246
11
115.379860
21
95.806026
0
LINE
8
Capa 1
10
115.379860
20
95.806026
11
116.043070
21
88.024396
0
LINE
8
Capa 1
10
116.043070
20
88.024396
11
116.126980
21
86.900256
0
LINE
8
Capa 1
10
116.126980
20
86.900256
11
116.085611
21
85.837000
0
LINE
8
Capa 1
10
116.085611
20
85.837000
11
115.818974
21
84.824869
0
LINE
8
Capa 1
10
115.818974
20
84.824869
11
115.227080
21
83.854106
0
LINE
8
Capa 1
10
115.227080
20
83.854106
11
114.691325
21
83.323469
0
LINE
8
Capa 1
10
114.691325
20
83.323469
11
114.092917
21
82.944045
0
LINE
8
Capa 1
10
114.092917
20
82.944045
11
112.701760
21
82.580726
0
LINE
8
Capa 1
10
112.701760
20
82.580726
11
112.408810
21
82.594526
0
LINE
8
Capa 1
10
112.408810
20
82.594526
11
111.071157
21
82.950692
0
LINE
8
Capa 1
10
111.071157
20
82.950692
11
109.974330
21
83.822746
0
LINE
8
Capa 1
10
109.974330
20
83.822746
11
109.415374
21
84.711508
0
LINE
8
Capa 1
10
109.415374
20
84.711508
11
109.136040
21
85.727816
0
LINE
8
Capa 1
10
109.136040
20
85.727816
11
109.082441
21
87.324813
0
LINE
8
Capa 1
10
109.082441
20
87.324813
11
109.213612
21
89.089338
0
LINE
8
Capa 1
10
109.213612
20
89.089338
11
109.615770
21
92.509106
0
LINE
8
Capa 1
10
109.615770
20
92.509106
11
110.265090
21
100.276186
0
LINE
8
Capa 1
10
110.265090
20
100.276186
11
108.028990
21
103.029794
0
LINE
8
Capa 1
10
108.028990
20
103.029794
11
105.841824
21
105.294335
0
LINE
8
Capa 1
10
105.841824
20
105.294335
11
103.638436
21
107.149019
0
LINE
8
Capa 1
10
103.638436
20
107.149019
11
101.353665
21
108.673055
0
LINE
8
Capa 1
10
101.353665
20
108.673055
11
98.922354
21
109.945650
0
LINE
8
Capa 1
10
98.922354
20
109.945650
11
96.279343
21
111.046015
0
LINE
8
Capa 1
10
96.279343
20
111.046015
11
90.097590
21
113.046886
0
LINE
8
Capa 1
10
90.097590
20
113.046886
11
86.339580
21
114.141985
0
LINE
8
Capa 1
10
86.339580
20
114.141985
11
84.493135
21
114.804630
0
LINE
8
Capa 1
10
84.493135
20
114.804630
11
82.730010
21
115.641266
0
LINE
8
Capa 1
10
82.730010
20
115.641266
11
81.725984
21
116.270176
0
LINE
8
Capa 1
10
81.725984
20
116.270176
11
80.793129
21
117.046542
0
LINE
8
Capa 1
10
80.793129
20
117.046542
11
80.033319
21
117.981206
0
LINE
8
Capa 1
10
80.033319
20
117.981206
11
79.548430
21
119.085006
0
LINE
8
Capa 1
10
79.548430
20
119.085006
11
79.439991
21
120.472910
0
LINE
8
Capa 1
10
79.439991
20
120.472910
11
79.798162
21
121.757591
0
LINE
8
Capa 1
10
79.798162
20
121.757591
11
80.525589
21
122.887765
0
LINE
8
Capa 1
10
80.525589
20
122.887765
11
81.524920
21
123.812146
0
LINE
8
Capa 1
10
81.524920
20
123.812146
11
82.410118
21
124.373443
0
LINE
8
Capa 1
10
82.410118
20
124.373443
11
83.146330
21
125.084396
0
LINE
8
Capa 1
10
83.146330
20
125.084396
11
82.934614
21
125.342973
0
LINE
8
Capa 1
10
82.934614
20
125.342973
11
82.472996
21
125.555806
0
LINE
8
Capa 1
10
82.472996
20
125.555806
11
81.099427
21
125.863847
0
LINE
8
Capa 1
10
81.099427
20
125.863847
11
78.646540
21
126.146716
0
LINE
8
Capa 1
10
78.646540
20
126.146716
11
74.593152
21
126.767248
0
LINE
8
Capa 1
10
74.593152
20
126.767248
11
70.583760
21
127.635506
0
LINE
8
Capa 1
10
70.583760
20
127.635506
11
67.991260
21
128.378758
0
LINE
8
Capa 1
10
67.991260
20
128.378758
11
65.351735
21
129.288845
0
LINE
8
Capa 1
10
65.351735
20
129.288845
11
62.713779
21
130.368969
0
LINE
8
Capa 1
10
62.713779
20
130.368969
11
60.125982
21
131.622335
0
LINE
8
Capa 1
10
60.125982
20
131.622335
11
57.636940
21
133.052147
0
LINE
8
Capa 1
10
57.636940
20
133.052147
11
55.295243
21
134.661611
0
LINE
8
Capa 1
10
55.295243
20
134.661611
11
53.149486
21
136.453929
0
LINE
8
Capa 1
10
53.149486
20
136.453929
11
51.248260
21
138.432306
0
LINE
8
Capa 1
10
51.248260
20
138.432306
11
49.908100
21
140.221513
0
LINE
8
Capa 1
10
49.908100
20
140.221513
11
48.830436
21
142.208421
0
LINE
8
Capa 1
10
48.830436
20
142.208421
11
48.149750
21
144.353204
0
LINE
8
Capa 1
10
48.149750
20
144.353204
11
48.000298
21
145.472353
0
LINE
8
Capa 1
10
48.000298
20
145.472353
11
48.000520
21
146.616036
0
LINE
8
Capa 1
10
48.000520
20
146.616036
11
48.195427
21
147.843454
0
LINE
8
Capa 1
10
48.195427
20
147.843454
11
48.605922
21
149.033904
0
LINE
8
Capa 1
10
48.605922
20
149.033904
11
49.226845
21
150.116611
0
LINE
8
Capa 1
10
49.226845
20
150.116611
11
50.053040
21
151.020806
0
LINE
8
Capa 1
10
50.053040
20
151.020806
11
50.728867
21
151.485488
0
LINE
8
Capa 1
10
50.728867
20
151.485488
11
51.488377
21
151.821921
0
LINE
8
Capa 1
10
51.488377
20
151.821921
11
53.168962
21
152.181621
0
LINE
8
Capa 1
10
53.168962
20
152.181621
11
54.915822
21
152.243076
0
LINE
8
Capa 1
10
54.915822
20
152.243076
11
56.549980
21
152.149456
0
LINE
8
Capa 1
10
56.549980
20
152.149456
11
53.141504
21
153.915991
0
LINE
8
Capa 1
10
53.141504
20
153.915991
11
49.706170
21
155.639866
0
LINE
8
Capa 1
10
49.706170
20
155.639866
11
45.355304
21
158.266441
0
LINE
8
Capa 1
10
45.355304
20
158.266441
11
43.114969
21
159.843865
0
LINE
8
Capa 1
10
43.114969
20
159.843865
11
40.929822
21
161.574825
0
LINE
8
Capa 1
10
40.929822
20
161.574825
11
38.873707
21
163.442402
0
LINE
8
Capa 1
10
38.873707
20
163.442402
11
37.020465
21
165.429679
0
LINE
8
Capa 1
10
37.020465
20
165.429679
11
35.443938
21
167.519740
0
LINE
8
Capa 1
10
35.443938
20
167.519740
11
34.217970
21
169.695666
0
LINE
8
Capa 1
10
34.217970
20
169.695666
11
33.744068
21
170.907271
0
LINE
8
Capa 1
10
33.744068
20
170.907271
11
33.454589
21
172.173811
0
LINE
8
Capa 1
10
33.454589
20
172.173811
11
33.416029
21
173.462709
0
LINE
8
Capa 1
10
33.416029
20
173.462709
11
33.694888
21
174.741386
0
LINE
8
Capa 1
10
33.694888
20
174.741386
11
34.291841
21
175.880242
0
LINE
8
Capa 1
10
34.291841
20
175.880242
11
35.106539
21
176.753183
0
LINE
8
Capa 1
10
35.106539
20
176.753183
11
36.091483
21
177.435764
0
LINE
8
Capa 1
10
36.091483
20
177.435764
11
37.199178
21
178.003536
0
LINE
8
Capa 1
10
37.199178
20
178.003536
11
35.101521
21
179.272992
0
LINE
8
Capa 1
10
35.101521
20
179.272992
11
32.964332
21
180.806858
0
LINE
8
Capa 1
10
32.964332
20
180.806858
11
31.993358
21
181.687062
0
LINE
8
Capa 1
10
31.993358
20
181.687062
11
31.147436
21
182.650306
0
LINE
8
Capa 1
10
31.147436
20
182.650306
11
30.471543
21
183.702239
0
LINE
8
Capa 1
10
30.471543
20
183.702239
11
30.010658
21
184.848506
0
LINE
8
Capa 1
10
30.010658
20
184.848506
11
29.947578
21
185.089436
0
LINE
8
Capa 1
10
29.947578
20
185.089436
11
29.895998
21
185.333186
0
LINE
8
Capa 1
10
29.895998
20
185.333186
11
29.856068
21
185.579206
0
LINE
8
Capa 1
10
29.856068
20
185.579206
11
29.827868
21
185.827116
0
LINE
8
Capa 1
10
29.827868
20
185.827116
11
29.811478
21
186.075976
0
LINE
8
Capa 1
10
29.811478
20
186.075976
11
29.806878
21
186.325406
0
LINE
8
Capa 1
10
29.806878
20
186.325406
11
29.814178
21
186.574826
0
LINE
8
Capa 1
10
29.814178
20
186.574826
11
29.833308
21
186.823676
0
LINE
8
Capa 1
10
29.833308
20
186.823676
11
29.864248
21
187.071026
0
LINE
8
Capa 1
10
29.864248
20
187.071026
11
29.906888
21
187.316666
0
LINE
8
Capa 1
10
29.906888
20
187.316666
11
29.961148
21
187.559856
0
LINE
8
Capa 1
10
29.961148
20
187.559856
11
30.026888
21
187.799826
0
LINE
8
Capa 1
10
30.026888
20
187.799826
11
30.103958
21
188.036406
0
LINE
8
Capa 1
10
30.103958
20
188.036406
11
30.192158
21
188.268636
0
LINE
8
Capa 1
10
30.192158
20
188.268636
11
30.291288
21
188.496136
0
LINE
8
Capa 1
10
30.291288
20
188.496136
11
30.401105
21
188.718356
0
LINE
8
Capa 1
10
30.401105
20
188.718356
11
31.157991
21
189.776123
0
LINE
8
Capa 1
10
31.157991
20
189.776123
11
32.101235
21
190.568523
0
LINE
8
Capa 1
10
32.101235
20
190.568523
11
33.188680
21
191.155435
0
LINE
8
Capa 1
10
33.188680
20
191.155435
11
34.378165
21
191.596736
0
LINE
8
Capa 1
10
34.378165
20
191.596736
11
33.087255
21
194.708866
0
LINE
8
Capa 1
10
33.087255
20
194.708866
11
32.503198
21
197.420578
0
LINE
8
Capa 1
10
32.503198
20
197.420578
11
32.175616
21
200.893121
0
LINE
8
Capa 1
10
32.175616
20
200.893121
11
32.267887
21
204.335162
0
LINE
8
Capa 1
10
32.267887
20
204.335162
11
32.522524
21
205.797452
0
LINE
8
Capa 1
10
32.522524
20
205.797452
11
32.943391
21
206.955366
0
LINE
8
Capa 1
10
32.943391
20
206.955366
11
33.496901
21
207.622785
0
LINE
8
Capa 1
10
33.496901
20
207.622785
11
34.268731
21
208.002376
0
LINE
8
Capa 1
10
34.268731
20
208.002376
11
35.695393
21
208.265686
0
LINE
8
Capa 1
10
35.695393
20
208.265686
11
37.343787
21
208.292772
0
LINE
8
Capa 1
10
37.343787
20
208.292772
11
39.134200
21
208.118108
0
LINE
8
Capa 1
10
39.134200
20
208.118108
11
40.986917
21
207.776171
0
LINE
8
Capa 1
10
40.986917
20
207.776171
11
44.560404
21
206.728375
0
LINE
8
Capa 1
10
44.560404
20
206.728375
11
47.426531
21
205.425186
0
LINE
8
Capa 1
10
47.426531
20
205.425186
11
47.317857
21
206.953307
0
LINE
8
Capa 1
10
47.317857
20
206.953307
11
47.466731
21
208.472496
0
LINE
8
Capa 1
10
47.466731
20
208.472496
11
47.747188
21
209.305195
0
LINE
8
Capa 1
10
47.747188
20
209.305195
11
48.177012
21
210.056600
0
LINE
8
Capa 1
10
48.177012
20
210.056600
11
48.744999
21
210.700971
0
LINE
8
Capa 1
10
48.744999
20
210.700971
11
49.439941
21
211.212566
0
LINE
8
Capa 1
10
49.439941
20
211.212566
11
50.352994
21
211.594451
0
LINE
8
Capa 1
10
50.352994
20
211.594451
11
51.317655
21
211.747763
0
LINE
8
Capa 1
10
51.317655
20
211.747763
11
52.298491
21
211.702635
0
LINE
8
Capa 1
10
52.298491
20
211.702635
11
53.260071
21
211.489199
0
LINE
8
Capa 1
10
53.260071
20
211.489199
11
54.704184
21
210.884827
0
LINE
8
Capa 1
10
54.704184
20
210.884827
11
55.968098
21
210.044218
0
LINE
8
Capa 1
10
55.968098
20
210.044218
11
57.077214
21
209.009735
0
LINE
8
Capa 1
10
57.077214
20
209.009735
11
58.056931
21
207.823739
0
LINE
8
Capa 1
10
58.056931
20
207.823739
11
59.729769
21
205.166662
0
LINE
8
Capa 1
10
59.729769
20
205.166662
11
61.189811
21
202.411889
0
LINE
8
Capa 1
10
61.189811
20
202.411889
11
61.649434
21
203.602319
0
LINE
8
Capa 1
10
61.649434
20
203.602319
11
62.121871
21
204.349021
0
LINE
8
Capa 1
10
62.121871
20
204.349021
11
62.714190
21
204.982701
0
LINE
8
Capa 1
10
62.714190
20
204.982701
11
63.415099
21
205.480118
0
LINE
8
Capa 1
10
63.415099
20
205.480118
11
64.213304
21
205.818029
0
LINE
8
Capa 1
10
64.213304
20
205.818029
11
65.351632
21
206.030401
0
LINE
8
Capa 1
10
65.351632
20
206.030401
11
66.447579
21
205.995302
0
LINE
8
Capa 1
10
66.447579
20
205.995302
11
67.501335
21
205.737849
0
LINE
8
Capa 1
10
67.501335
20
205.737849
11
68.513087
21
205.283163
0
LINE
8
Capa 1
10
68.513087
20
205.283163
11
70.411334
21
203.882559
0
LINE
8
Capa 1
10
70.411334
20
203.882559
11
72.143828
21
201.994438
0
LINE
8
Capa 1
10
72.143828
20
201.994438
11
73.712075
21
199.819747
0
LINE
8
Capa 1
10
73.712075
20
199.819747
11
75.117582
21
197.559434
0
LINE
8
Capa 1
10
75.117582
20
197.559434
11
77.446404
21
193.585729
0
LINE
8
Capa 1
10
77.446404
20
193.585729
11
78.752238
21
191.562801
0
LINE
8
Capa 1
10
78.752238
20
191.562801
11
80.214498
21
189.566234
0
LINE
8
Capa 1
10
80.214498
20
189.566234
11
81.871666
21
187.767929
0
LINE
8
Capa 1
10
81.871666
20
187.767929
11
83.762224
21
186.339789
0
LINE
8
Capa 1
10
83.762224
20
186.339789
11
81.832824
21
188.399247
0
LINE
8
Capa 1
10
81.832824
20
188.399247
11
80.139245
21
190.641024
0
LINE
8
Capa 1
10
80.139245
20
190.641024
11
78.743854
21
193.085174
0
LINE
8
Capa 1
10
78.743854
20
193.085174
11
77.709014
21
195.751749
0
LINE
8
Capa 1
10
77.709014
20
195.751749
11
77.272721
21
197.489544
0
LINE
8
Capa 1
10
77.272721
20
197.489544
11
77.043176
21
199.318520
0
LINE
8
Capa 1
10
77.043176
20
199.318520
11
77.151265
21
201.132513
0
LINE
8
Capa 1
10
77.151265
20
201.132513
11
77.727874
21
202.825359
0
LINE
8
Capa 1
10
77.727874
20
202.825359
11
78.320579
21
203.694910
0
LINE
8
Capa 1
10
78.320579
20
203.694910
11
79.057941
21
204.387845
0
LINE
8
Capa 1
10
79.057941
20
204.387845
11
79.919177
21
204.909302
0
LINE
8
Capa 1
10
79.919177
20
204.909302
11
80.883504
21
205.264419
0
LINE
8
Capa 1
10
80.883504
20
205.264419
11
82.759416
21
205.486166
0
LINE
8
Capa 1
10
82.759416
20
205.486166
11
84.611635
21
205.215479
0
LINE
8
Capa 1
10
84.611635
20
205.215479
11
86.395494
21
204.572642
0
LINE
8
Capa 1
10
86.395494
20
204.572642
11
88.066324
21
203.677939
0
LINE
8
Capa 1
10
88.066324
20
203.677939
11
85.527300
21
207.258000
0
LINE
8
Capa 1
10
85.527300
20
207.258000
11
83.655489
21
210.299531
0
LINE
8
Capa 1
10
83.655489
20
210.299531
11
81.964063
21
213.545250
0
LINE
8
Capa 1
10
81.964063
20
213.545250
11
80.552705
21
216.924844
0
LINE
8
Capa 1
10
80.552705
20
216.924844
11
79.521100
21
220.368000
0
LINE
8
Capa 1
10
79.521100
20
220.368000
11
78.909612
21
223.275937
0
LINE
8
Capa 1
10
78.909612
20
223.275937
11
78.576000
21
226.284000
0
LINE
8
Capa 1
10
78.576000
20
226.284000
11
78.600069
21
227.779523
0
LINE
8
Capa 1
10
78.600069
20
227.779523
11
78.797612
21
229.244812
0
LINE
8
Capa 1
10
78.797612
20
229.244812
11
79.203300
21
230.661445
0
LINE
8
Capa 1
10
79.203300
20
230.661445
11
79.851800
21
232.011000
0
LINE
8
Capa 1
10
79.851800
20
232.011000
11
80.795617
21
233.335049
0
LINE
8
Capa 1
10
80.795617
20
233.335049
11
81.964516
21
234.503509
0
LINE
8
Capa 1
10
81.964516
20
234.503509
11
83.315817
21
235.419960
0
LINE
8
Capa 1
10
83.315817
20
235.419960
11
84.806840
21
235.987980
0
LINE
8
Capa 1
10
84.806840
20
235.987980
11
86.460991
21
236.146644
0
LINE
8
Capa 1
10
86.460991
20
236.146644
11
88.073286
21
235.898792
0
LINE
8
Capa 1
10
88.073286
20
235.898792
11
89.620303
21
235.327824
0
LINE
8
Capa 1
10
89.620303
20
235.327824
11
91.078620
21
234.517140
0
LINE
8
Capa 1
10
91.078620
20
234.517140
11
90.258416
21
237.786670
0
LINE
8
Capa 1
10
90.258416
20
237.786670
11
89.811818
21
240.474199
0
LINE
8
Capa 1
10
89.811818
20
240.474199
11
89.662841
21
243.342361
0
LINE
8
Capa 1
10
89.662841
20
243.342361
11
89.760479
21
244.769163
0
LINE
8
Capa 1
10
89.760479
20
244.769163
11
90.005143
21
246.151103
0
LINE
8
Capa 1
10
90.005143
20
246.151103
11
90.421042
21
247.458174
0
LINE
8
Capa 1
10
90.421042
20
247.458174
11
91.032382
21
248.660370
0
LINE
8
Capa 1
10
91.032382
20
248.660370
11
91.727101
21
249.555044
0
LINE
8
Capa 1
10
91.727101
20
249.555044
11
92.560394
21
250.264141
0
LINE
8
Capa 1
10
92.560394
20
250.264141
11
93.517047
21
250.783055
0
LINE
8
Capa 1
10
93.517047
20
250.783055
11
94.581842
21
251.107180
0
LINE
8
Capa 1
10
94.581842
20
251.107180
11
96.280035
21
251.202930
0
LINE
8
Capa 1
10
96.280035
20
251.202930
11
97.834221
21
250.843145
0
LINE
8
Capa 1
10
97.834221
20
250.843145
11
99.300377
21
250.142609
0
LINE
8
Capa 1
10
99.300377
20
250.142609
11
100.734482
21
249.216100
0
LINE
8
Capa 1
10
100.734482
20
249.216100
11
101.926772
21
252.452100
0
LINE
8
Capa 1
10
101.926772
20
252.452100
11
103.421532
21
255.550880
0
LINE
8
Capa 1
10
103.421532
20
255.550880
11
105.047655
21
258.103473
0
LINE
8
Capa 1
10
105.047655
20
258.103473
11
107.299862
21
260.917675
0
LINE
8
Capa 1
10
107.299862
20
260.917675
11
108.554360
21
262.221834
0
LINE
8
Capa 1
10
108.554360
20
262.221834
11
109.837714
21
263.350142
0
LINE
8
Capa 1
10
109.837714
20
263.350142
11
111.107369
21
264.222180
0
LINE
8
Capa 1
10
111.107369
20
264.222180
11
112.320772
21
264.757530
0
LINE
8
Capa 1
10
112.320772
20
264.757530
11
112.321000
21
264.758000
 0 
ENDSEC
 0 
EOF