999
"DXF R12 Output" (www.mydxf.blogspot.com)
 0 
SECTION
 2 
HEADER
 9 
$ACADVER
 1 
AC1009
 9 
$EXTMIN
 10 
 0 
 20 
 0 
 9 
$EXTMAX
 10 
 8.5 
 20 
 11 
 0 
ENDSEC
 0 
SECTION
 2 
ENTITIES
0
LINE
8
Capa 1
10
105.138000
20
283.397000
11
106.264626
21
283.473783
0
LINE
8
Capa 1
10
106.264626
20
283.473783
11
107.390660
21
283.401000
0
LINE
8
Capa 1
10
107.390660
20
283.401000
11
108.580429
21
283.129821
0
LINE
8
Capa 1
10
108.580429
20
283.129821
11
109.735894
21
282.711466
0
LINE
8
Capa 1
10
109.735894
20
282.711466
11
111.941230
21
281.639560
0
LINE
8
Capa 1
10
111.941230
20
281.639560
11
113.538216
21
280.698989
0
LINE
8
Capa 1
10
113.538216
20
280.698989
11
115.063538
21
279.611256
0
LINE
8
Capa 1
10
115.063538
20
279.611256
11
117.878050
21
277.072254
0
LINE
8
Capa 1
10
117.878050
20
277.072254
11
120.342477
21
274.178455
0
LINE
8
Capa 1
10
120.342477
20
274.178455
11
122.414530
21
271.085760
0
LINE
8
Capa 1
10
122.414530
20
271.085760
11
124.595100
21
267.257746
0
LINE
8
Capa 1
10
124.595100
20
267.257746
11
126.952670
21
263.541850
0
LINE
8
Capa 1
10
126.952670
20
263.541850
11
128.957150
21
264.168700
0
LINE
8
Capa 1
10
128.957150
20
264.168700
11
131.319860
21
264.574367
0
LINE
8
Capa 1
10
131.319860
20
264.574367
11
133.668556
21
264.528818
0
LINE
8
Capa 1
10
133.668556
20
264.528818
11
135.955686
21
264.014589
0
LINE
8
Capa 1
10
135.955686
20
264.014589
11
138.133700
21
263.014220
0
LINE
8
Capa 1
10
138.133700
20
263.014220
11
139.584136
21
262.004059
0
LINE
8
Capa 1
10
139.584136
20
262.004059
11
140.841849
21
260.824520
0
LINE
8
Capa 1
10
140.841849
20
260.824520
11
141.919258
21
259.494094
0
LINE
8
Capa 1
10
141.919258
20
259.494094
11
142.828780
21
258.031275
0
LINE
8
Capa 1
10
142.828780
20
258.031275
11
143.582835
21
256.454555
0
LINE
8
Capa 1
10
143.582835
20
256.454555
11
144.193841
21
254.782427
0
LINE
8
Capa 1
10
144.193841
20
254.782427
11
145.036375
21
251.225919
0
LINE
8
Capa 1
10
145.036375
20
251.225919
11
145.455729
21
247.509692
0
LINE
8
Capa 1
10
145.455729
20
247.509692
11
145.551250
21
243.781688
0
LINE
8
Capa 1
10
145.551250
20
243.781688
11
145.422281
21
240.189850
0
LINE
8
Capa 1
10
145.422281
20
240.189850
11
145.168170
21
236.882120
0
LINE
8
Capa 1
10
145.168170
20
236.882120
11
144.686167
21
232.252176
0
LINE
8
Capa 1
10
144.686167
20
232.252176
11
144.608876
21
229.823053
0
LINE
8
Capa 1
10
144.608876
20
229.823053
11
144.875280
21
227.749230
0
LINE
8
Capa 1
10
144.875280
20
227.749230
11
145.151735
21
227.066902
0
LINE
8
Capa 1
10
145.151735
20
227.066902
11
145.692310
21
226.581620
0
LINE
8
Capa 1
10
145.692310
20
226.581620
11
146.604299
21
226.627624
0
LINE
8
Capa 1
10
146.604299
20
226.627624
11
147.449410
21
227.001249
0
LINE
8
Capa 1
10
147.449410
20
227.001249
11
148.629287
21
227.895904
0
LINE
8
Capa 1
10
148.629287
20
227.895904
11
149.710540
21
228.917359
0
LINE
8
Capa 1
10
149.710540
20
228.917359
11
152.076707
21
231.083039
0
LINE
8
Capa 1
10
152.076707
20
231.083039
11
154.622260
21
233.025279
0
LINE
8
Capa 1
10
154.622260
20
233.025279
11
156.783853
21
234.091396
0
LINE
8
Capa 1
10
156.783853
20
234.091396
11
159.147729
21
234.713088
0
LINE
8
Capa 1
10
159.147729
20
234.713088
11
161.589243
21
234.879415
0
LINE
8
Capa 1
10
161.589243
20
234.879415
11
163.983750
21
234.579439
0
LINE
8
Capa 1
10
163.983750
20
234.579439
11
165.631288
21
234.018407
0
LINE
8
Capa 1
10
165.631288
20
234.018407
11
167.093136
21
233.153467
0
LINE
8
Capa 1
10
167.093136
20
233.153467
11
168.354759
21
232.011705
0
LINE
8
Capa 1
10
168.354759
20
232.011705
11
169.401620
21
230.620209
0
LINE
8
Capa 1
10
169.401620
20
230.620209
11
170.126849
21
229.203576
0
LINE
8
Capa 1
10
170.126849
20
229.203576
11
170.647450
21
227.653544
0
LINE
8
Capa 1
10
170.647450
20
227.653544
11
170.979477
21
225.989350
0
LINE
8
Capa 1
10
170.979477
20
225.989350
11
171.138983
21
224.230229
0
LINE
8
Capa 1
10
171.138983
20
224.230229
11
171.004650
21
220.504148
0
LINE
8
Capa 1
10
171.004650
20
220.504148
11
170.372880
21
216.629190
0
LINE
8
Capa 1
10
170.372880
20
216.629190
11
169.372102
21
212.759241
0
LINE
8
Capa 1
10
169.372102
20
212.759241
11
168.130747
21
209.048186
0
LINE
8
Capa 1
10
168.130747
20
209.048186
11
166.777243
21
205.649914
0
LINE
8
Capa 1
10
166.777243
20
205.649914
11
165.440020
21
202.718309
0
LINE
8
Capa 1
10
165.440020
20
202.718309
11
161.516809
21
195.321814
0
LINE
8
Capa 1
10
161.516809
20
195.321814
11
159.744402
21
191.522481
0
LINE
8
Capa 1
10
159.744402
20
191.522481
11
159.030938
21
189.564747
0
LINE
8
Capa 1
10
159.030938
20
189.564747
11
158.480420
21
187.555809
0
LINE
8
Capa 1
10
158.480420
20
187.555809
11
158.083115
21
185.647434
0
LINE
8
Capa 1
10
158.083115
20
185.647434
11
158.047441
21
184.639519
0
LINE
8
Capa 1
10
158.047441
20
184.639519
11
158.301560
21
183.801369
0
LINE
8
Capa 1
10
158.301560
20
183.801369
11
158.732435
21
183.674391
0
LINE
8
Capa 1
10
158.732435
20
183.674391
11
159.118065
21
183.699917
0
LINE
8
Capa 1
10
159.118065
20
183.699917
11
159.905200
21
184.044519
0
LINE
8
Capa 1
10
159.905200
20
184.044519
11
162.468118
21
185.672107
0
LINE
8
Capa 1
10
162.468118
20
185.672107
11
164.959800
21
187.429069
0
LINE
8
Capa 1
10
164.959800
20
187.429069
11
168.731708
21
189.841447
0
LINE
8
Capa 1
10
168.731708
20
189.841447
11
172.663835
21
192.119507
0
LINE
8
Capa 1
10
172.663835
20
192.119507
11
176.739894
21
194.104124
0
LINE
8
Capa 1
10
176.739894
20
194.104124
11
180.943600
21
195.636179
0
LINE
8
Capa 1
10
180.943600
20
195.636179
11
184.170445
21
196.390443
0
LINE
8
Capa 1
10
184.170445
20
196.390443
11
187.556363
21
196.710125
0
LINE
8
Capa 1
10
187.556363
20
196.710125
11
189.246754
21
196.645050
0
LINE
8
Capa 1
10
189.246754
20
196.645050
11
190.902249
21
196.396990
0
LINE
8
Capa 1
10
190.902249
20
196.396990
11
192.497961
21
195.941166
0
LINE
8
Capa 1
10
192.497961
20
195.941166
11
194.009000
21
195.252799
0
LINE
8
Capa 1
10
194.009000
20
195.252799
11
195.714095
21
194.074428
0
LINE
8
Capa 1
10
195.714095
20
194.074428
11
197.081800
21
192.633425
0
LINE
8
Capa 1
10
197.081800
20
192.633425
11
198.121193
21
190.936637
0
LINE
8
Capa 1
10
198.121193
20
190.936637
11
198.841350
21
188.990909
0
LINE
8
Capa 1
10
198.841350
20
188.990909
11
199.326693
21
186.119914
0
LINE
8
Capa 1
10
199.326693
20
186.119914
11
199.422110
21
183.205269
0
LINE
8
Capa 1
10
199.422110
20
183.205269
11
199.326565
21
180.632889
0
LINE
8
Capa 1
10
199.326565
20
180.632889
11
199.057541
21
178.149370
0
LINE
8
Capa 1
10
199.057541
20
178.149370
11
198.619408
21
175.740464
0
LINE
8
Capa 1
10
198.619408
20
175.740464
11
198.016532
21
173.391920
0
LINE
8
Capa 1
10
198.016532
20
173.391920
11
197.253284
21
171.089489
0
LINE
8
Capa 1
10
197.253284
20
171.089489
11
196.334030
21
168.818919
0
LINE
8
Capa 1
10
196.334030
20
168.818919
11
194.044980
21
164.316369
0
LINE
8
Capa 1
10
194.044980
20
164.316369
11
195.280941
21
163.941501
0
LINE
8
Capa 1
10
195.280941
20
163.941501
11
196.420836
21
163.410564
0
LINE
8
Capa 1
10
196.420836
20
163.410564
11
197.455410
21
162.699049
0
LINE
8
Capa 1
10
197.455410
20
162.699049
11
198.375410
21
161.782449
0
LINE
8
Capa 1
10
198.375410
20
161.782449
11
199.479917
21
160.065612
0
LINE
8
Capa 1
10
199.479917
20
160.065612
11
200.165918
21
158.148004
0
LINE
8
Capa 1
10
200.165918
20
158.148004
11
200.471215
21
156.123041
0
LINE
8
Capa 1
10
200.471215
20
156.123041
11
200.433610
21
154.084139
0
LINE
8
Capa 1
10
200.433610
20
154.084139
11
200.045296
21
151.998962
0
LINE
8
Capa 1
10
200.045296
20
151.998962
11
199.350173
21
149.962823
0
LINE
8
Capa 1
10
199.350173
20
149.962823
11
198.438603
21
148.005214
0
LINE
8
Capa 1
10
198.438603
20
148.005214
11
197.400950
21
146.155629
0
LINE
8
Capa 1
10
197.400950
20
146.155629
11
195.569218
21
143.369223
0
LINE
8
Capa 1
10
195.569218
20
143.369223
11
193.627175
21
140.897651
0
LINE
8
Capa 1
10
193.627175
20
140.897651
11
191.572041
21
138.677524
0
LINE
8
Capa 1
10
191.572041
20
138.677524
11
189.401034
21
136.645452
0
LINE
8
Capa 1
10
189.401034
20
136.645452
11
184.700275
21
132.891916
0
LINE
8
Capa 1
10
184.700275
20
132.891916
11
179.502650
21
129.129929
0
LINE
8
Capa 1
10
179.502650
20
129.129929
11
177.094310
21
127.403553
0
LINE
8
Capa 1
10
177.094310
20
127.403553
11
174.745700
21
125.601179
0
LINE
8
Capa 1
10
174.745700
20
125.601179
11
177.682580
21
125.515179
0
LINE
8
Capa 1
10
177.682580
20
125.515179
11
179.971482
21
125.083546
0
LINE
8
Capa 1
10
179.971482
20
125.083546
11
182.077999
21
124.290359
0
LINE
8
Capa 1
10
182.077999
20
124.290359
11
183.966286
21
123.086307
0
LINE
8
Capa 1
10
183.966286
20
123.086307
11
185.600500
21
121.422079
0
LINE
8
Capa 1
10
185.600500
20
121.422079
11
186.702606
21
119.614848
0
LINE
8
Capa 1
10
186.702606
20
119.614848
11
187.321048
21
117.696147
0
LINE
8
Capa 1
10
187.321048
20
117.696147
11
187.528081
21
115.676341
0
LINE
8
Capa 1
10
187.528081
20
115.676341
11
187.395960
21
113.565799
0
LINE
8
Capa 1
10
187.395960
20
113.565799
11
186.974622
21
111.408276
0
LINE
8
Capa 1
10
186.974622
20
111.408276
11
186.289713
21
109.307874
0
LINE
8
Capa 1
10
186.289713
20
109.307874
11
185.364545
21
107.268766
0
LINE
8
Capa 1
10
185.364545
20
107.268766
11
184.222432
21
105.295122
0
LINE
8
Capa 1
10
184.222432
20
105.295122
11
182.886687
21
103.391116
0
LINE
8
Capa 1
10
182.886687
20
103.391116
11
181.380625
21
101.560919
0
LINE
8
Capa 1
10
181.380625
20
101.560919
11
179.727557
21
99.808702
0
LINE
8
Capa 1
10
179.727557
20
99.808702
11
177.950799
21
98.138637
0
LINE
8
Capa 1
10
177.950799
20
98.138637
11
174.119462
21
95.061650
0
LINE
8
Capa 1
10
174.119462
20
95.061650
11
170.073121
21
92.363332
0
LINE
8
Capa 1
10
170.073121
20
92.363332
11
165.998285
21
90.077057
0
LINE
8
Capa 1
10
165.998285
20
90.077057
11
162.081460
21
88.236199
0
LINE
8
Capa 1
10
162.081460
20
88.236199
11
157.209860
21
86.371362
0
LINE
8
Capa 1
10
157.209860
20
86.371362
11
152.403394
21
84.632182
0
LINE
8
Capa 1
10
152.403394
20
84.632182
11
150.048195
21
83.669862
0
LINE
8
Capa 1
10
150.048195
20
83.669862
11
147.737610
21
82.571135
0
LINE
8
Capa 1
10
147.737610
20
82.571135
11
145.481084
21
81.280061
0
LINE
8
Capa 1
10
145.481084
20
81.280061
11
143.288060
21
79.740699
0
LINE
8
Capa 1
10
143.288060
20
79.740699
11
145.061796
21
80.003495
0
LINE
8
Capa 1
10
145.061796
20
80.003495
11
146.854380
21
79.989669
0
LINE
8
Capa 1
10
146.854380
20
79.989669
11
148.087048
21
79.781857
0
LINE
8
Capa 1
10
148.087048
20
79.781857
11
149.251703
21
79.377094
0
LINE
8
Capa 1
10
149.251703
20
79.377094
11
150.303546
21
78.748592
0
LINE
8
Capa 1
10
150.303546
20
78.748592
11
151.197780
21
77.869559
0
LINE
8
Capa 1
10
151.197780
20
77.869559
11
151.354410
21
77.657369
0
LINE
8
Capa 1
10
151.354410
20
77.657369
11
151.500200
21
77.437759
0
LINE
8
Capa 1
10
151.500200
20
77.437759
11
151.634870
21
77.211019
0
LINE
8
Capa 1
10
151.634870
20
77.211019
11
151.758170
21
76.977919
0
LINE
8
Capa 1
10
151.758170
20
76.977919
11
151.869560
21
76.738739
0
LINE
8
Capa 1
10
151.869560
20
76.738739
11
151.968760
21
76.494529
0
LINE
8
Capa 1
10
151.968760
20
76.494529
11
152.055860
21
76.245549
0
LINE
8
Capa 1
10
152.055860
20
76.245549
11
152.130260
21
75.992609
0
LINE
8
Capa 1
10
152.130260
20
75.992609
11
152.192160
21
75.736229
0
LINE
8
Capa 1
10
152.192160
20
75.736229
11
152.240860
21
75.477199
0
LINE
8
Capa 1
10
152.240860
20
75.477199
11
152.276860
21
75.215789
0
LINE
8
Capa 1
10
152.276860
20
75.215789
11
152.299360
21
74.953059
0
LINE
8
Capa 1
10
152.299360
20
74.953059
11
152.309360
21
74.689539
0
LINE
8
Capa 1
10
152.309360
20
74.689539
11
152.305360
21
74.426009
0
LINE
8
Capa 1
10
152.305360
20
74.426009
11
152.288660
21
74.162749
0
LINE
8
Capa 1
10
152.288660
20
74.162749
11
152.258760
21
73.900809
0
LINE
8
Capa 1
10
152.258760
20
73.900809
11
151.914688
21
72.396871
0
LINE
8
Capa 1
10
151.914688
20
72.396871
11
151.311486
21
70.938527
0
LINE
8
Capa 1
10
151.311486
20
70.938527
11
150.477110
21
69.526640
0
LINE
8
Capa 1
10
150.477110
20
69.526640
11
149.439521
21
68.162072
0
LINE
8
Capa 1
10
149.439521
20
68.162072
11
146.866532
21
65.578350
0
LINE
8
Capa 1
10
146.866532
20
65.578350
11
143.816186
21
63.194265
0
LINE
8
Capa 1
10
143.816186
20
63.194265
11
140.512150
21
61.016724
0
LINE
8
Capa 1
10
140.512150
20
61.016724
11
137.178089
21
59.052630
0
LINE
8
Capa 1
10
137.178089
20
59.052630
11
131.314560
21
55.792409
0
LINE
8
Capa 1
10
131.314560
20
55.792409
11
128.107943
21
53.839784
0
LINE
8
Capa 1
10
128.107943
20
53.839784
11
125.026470
21
51.695069
0
LINE
8
Capa 1
10
125.026470
20
51.695069
11
122.854013
21
49.910798
0
LINE
8
Capa 1
10
122.854013
20
49.910798
11
120.876043
21
47.990336
0
LINE
8
Capa 1
10
120.876043
20
47.990336
11
119.103794
21
45.932156
0
LINE
8
Capa 1
10
119.103794
20
45.932156
11
117.548501
21
43.734737
0
LINE
8
Capa 1
10
117.548501
20
43.734737
11
116.221398
21
41.396552
0
LINE
8
Capa 1
10
116.221398
20
41.396552
11
115.133719
21
38.916079
0
LINE
8
Capa 1
10
115.133719
20
38.916079
11
114.296698
21
36.291792
0
LINE
8
Capa 1
10
114.296698
20
36.291792
11
113.721570
21
33.522169
0
LINE
8
Capa 1
10
113.721570
20
33.522169
11
113.492968
21
30.778602
0
LINE
8
Capa 1
10
113.492968
20
30.778602
11
113.284210
21
28.032859
0
LINE
8
Capa 1
10
113.284210
20
28.032859
11
113.259910
21
27.870139
0
LINE
8
Capa 1
10
113.259910
20
27.870139
11
112.398265
21
25.538397
0
LINE
8
Capa 1
10
112.398265
20
25.538397
11
111.767651
21
24.481580
0
LINE
8
Capa 1
10
111.767651
20
24.481580
11
110.980000
21
23.497369
0
LINE
8
Capa 1
10
110.980000
20
23.497369
11
110.022267
21
22.598505
0
LINE
8
Capa 1
10
110.022267
20
22.598505
11
108.896209
21
21.826987
0
LINE
8
Capa 1
10
108.896209
20
21.826987
11
107.659719
21
21.285557
0
LINE
8
Capa 1
10
107.659719
20
21.285557
11
106.370690
21
21.076959
0
LINE
8
Capa 1
10
106.370690
20
21.076959
11
105.610315
21
21.157036
0
LINE
8
Capa 1
10
105.610315
20
21.157036
11
104.887074
21
21.393247
0
LINE
8
Capa 1
10
104.887074
20
21.393247
11
103.640990
21
22.264939
0
LINE
8
Capa 1
10
103.640990
20
22.264939
11
103.149629
21
22.903532
0
LINE
8
Capa 1
10
103.149629
20
22.903532
11
102.777997
21
23.664655
0
LINE
8
Capa 1
10
102.777997
20
23.664655
11
102.345885
21
25.491687
0
LINE
8
Capa 1
10
102.345885
20
25.491687
11
102.248588
21
27.620427
0
LINE
8
Capa 1
10
102.248588
20
27.620427
11
102.390036
21
29.925265
0
LINE
8
Capa 1
10
102.390036
20
29.925265
11
103.004894
21
34.560805
0
LINE
8
Capa 1
10
103.004894
20
34.560805
11
103.421910
21
38.393439
0
LINE
8
Capa 1
10
103.421910
20
38.393439
11
103.208508
21
39.939805
0
LINE
8
Capa 1
10
103.208508
20
39.939805
11
102.603401
21
41.408234
0
LINE
8
Capa 1
10
102.603401
20
41.408234
11
101.753961
21
42.778436
0
LINE
8
Capa 1
10
101.753961
20
42.778436
11
100.807560
21
44.030119
0
LINE
8
Capa 1
10
100.807560
20
44.030119
11
97.904768
21
47.236621
0
LINE
8
Capa 1
10
97.904768
20
47.236621
11
94.750305
21
49.996532
0
LINE
8
Capa 1
10
94.750305
20
49.996532
11
91.391270
21
52.405388
0
LINE
8
Capa 1
10
91.391270
20
52.405388
11
87.874766
21
54.558725
0
LINE
8
Capa 1
10
87.874766
20
54.558725
11
80.557750
21
58.480990
0
LINE
8
Capa 1
10
80.557750
20
58.480990
11
76.851439
21
60.440991
0
LINE
8
Capa 1
10
76.851439
20
60.440991
11
73.176060
21
62.527619
0
LINE
8
Capa 1
10
73.176060
20
62.527619
11
70.494981
21
64.209442
0
LINE
8
Capa 1
10
70.494981
20
64.209442
11
67.897120
21
66.031364
0
LINE
8
Capa 1
10
67.897120
20
66.031364
11
65.429279
21
68.019973
0
LINE
8
Capa 1
10
65.429279
20
68.019973
11
63.138260
21
70.201859
0
LINE
8
Capa 1
10
63.138260
20
70.201859
11
60.979116
21
72.718332
0
LINE
8
Capa 1
10
60.979116
20
72.718332
11
59.078858
21
75.614739
0
LINE
8
Capa 1
10
59.078858
20
75.614739
11
58.323114
21
77.166700
0
LINE
8
Capa 1
10
58.323114
20
77.166700
11
57.748858
21
78.767182
0
LINE
8
Capa 1
10
57.748858
20
78.767182
11
57.395009
21
80.400697
0
LINE
8
Capa 1
10
57.395009
20
80.400697
11
57.300490
21
82.051759
0
LINE
8
Capa 1
10
57.300490
20
82.051759
11
57.457959
21
83.433717
0
LINE
8
Capa 1
10
57.457959
20
83.433717
11
57.856380
21
84.756169
0
LINE
8
Capa 1
10
57.856380
20
84.756169
11
58.506816
21
85.968438
0
LINE
8
Capa 1
10
58.506816
20
85.968438
11
59.420330
21
87.019849
0
LINE
8
Capa 1
10
59.420330
20
87.019849
11
60.587365
21
87.892062
0
LINE
8
Capa 1
10
60.587365
20
87.892062
11
61.896830
21
88.553634
0
LINE
8
Capa 1
10
61.896830
20
88.553634
11
63.313154
21
89.030065
0
LINE
8
Capa 1
10
63.313154
20
89.030065
11
64.800769
21
89.346854
0
LINE
8
Capa 1
10
64.800769
20
89.346854
11
67.847588
21
89.603502
0
LINE
8
Capa 1
10
67.847588
20
89.603502
11
70.752730
21
89.527569
0
LINE
8
Capa 1
10
70.752730
20
89.527569
11
69.383868
21
91.022195
0
LINE
8
Capa 1
10
69.383868
20
91.022195
11
67.800253
21
92.326197
0
LINE
8
Capa 1
10
67.800253
20
92.326197
11
66.049568
21
93.466787
0
LINE
8
Capa 1
10
66.049568
20
93.466787
11
64.179494
21
94.471174
0
LINE
8
Capa 1
10
64.179494
20
94.471174
11
60.271902
21
96.180183
0
LINE
8
Capa 1
10
60.271902
20
96.180183
11
56.458930
21
97.670909
0
LINE
8
Capa 1
10
56.458930
20
97.670909
11
50.744355
21
100.055941
0
LINE
8
Capa 1
10
50.744355
20
100.055941
11
45.291846
21
102.608674
0
LINE
8
Capa 1
10
45.291846
20
102.608674
11
40.136604
21
105.420492
0
LINE
8
Capa 1
10
40.136604
20
105.420492
11
35.313830
21
108.582775
0
LINE
8
Capa 1
10
35.313830
20
108.582775
11
33.038119
21
110.323899
0
LINE
8
Capa 1
10
33.038119
20
110.323899
11
30.858725
21
112.186907
0
LINE
8
Capa 1
10
30.858725
20
112.186907
11
28.780048
21
114.183222
0
LINE
8
Capa 1
10
28.780048
20
114.183222
11
26.806489
21
116.324268
0
LINE
8
Capa 1
10
26.806489
20
116.324268
11
24.942448
21
118.621467
0
LINE
8
Capa 1
10
24.942448
20
118.621467
11
23.192324
21
121.086242
0
LINE
8
Capa 1
10
23.192324
20
121.086242
11
21.560518
21
123.730015
0
LINE
8
Capa 1
10
21.560518
20
123.730015
11
20.051430
21
126.564209
0
LINE
8
Capa 1
10
20.051430
20
126.564209
11
18.225080
21
130.711561
0
LINE
8
Capa 1
10
18.225080
20
130.711561
11
17.392107
21
133.048790
0
LINE
8
Capa 1
10
17.392107
20
133.048790
11
16.696810
21
135.474119
0
LINE
8
Capa 1
10
16.696810
20
135.474119
11
16.202344
21
137.921847
0
LINE
8
Capa 1
10
16.202344
20
137.921847
11
15.971865
21
140.326272
0
LINE
8
Capa 1
10
15.971865
20
140.326272
11
16.068528
21
142.621693
0
LINE
8
Capa 1
10
16.068528
20
142.621693
11
16.555490
21
144.742409
0
LINE
8
Capa 1
10
16.555490
20
144.742409
11
17.473320
21
146.597668
0
LINE
8
Capa 1
10
17.473320
20
146.597668
11
18.740350
21
148.073118
0
LINE
8
Capa 1
10
18.740350
20
148.073118
11
20.303945
21
149.261429
0
LINE
8
Capa 1
10
20.303945
20
149.261429
11
22.111470
21
150.255269
0
LINE
8
Capa 1
10
22.111470
20
150.255269
11
21.441810
21
151.630049
0
LINE
8
Capa 1
10
21.441810
20
151.630049
11
20.115295
21
154.683604
0
LINE
8
Capa 1
10
20.115295
20
154.683604
11
18.905406
21
158.027323
0
LINE
8
Capa 1
10
18.905406
20
158.027323
11
17.876529
21
161.572585
0
LINE
8
Capa 1
10
17.876529
20
161.572585
11
17.093051
21
165.230768
0
LINE
8
Capa 1
10
17.093051
20
165.230768
11
16.619360
21
168.913248
0
LINE
8
Capa 1
10
16.619360
20
168.913248
11
16.519841
21
172.531403
0
LINE
8
Capa 1
10
16.519841
20
172.531403
11
16.858882
21
175.996611
0
LINE
8
Capa 1
10
16.858882
20
175.996611
11
17.212983
21
177.644165
0
LINE
8
Capa 1
10
17.212983
20
177.644165
11
17.700870
21
179.220249
0
LINE
8
Capa 1
10
17.700870
20
179.220249
11
18.676890
21
181.332177
0
LINE
8
Capa 1
10
18.676890
20
181.332177
11
19.988095
21
183.173387
0
LINE
8
Capa 1
10
19.988095
20
183.173387
11
21.641652
21
184.707017
0
LINE
8
Capa 1
10
21.641652
20
184.707017
11
23.644730
21
185.896209
0
LINE
8
Capa 1
10
23.644730
20
185.896209
11
25.205145
21
186.499287
0
LINE
8
Capa 1
10
25.205145
20
186.499287
11
26.818357
21
186.907188
0
LINE
8
Capa 1
10
26.818357
20
186.907188
11
28.475000
21
187.134395
0
LINE
8
Capa 1
10
28.475000
20
187.134395
11
30.165712
21
187.195392
0
LINE
8
Capa 1
10
30.165712
20
187.195392
11
33.611887
21
186.876695
0
LINE
8
Capa 1
10
33.611887
20
186.876695
11
37.081973
21
186.066967
0
LINE
8
Capa 1
10
37.081973
20
186.066967
11
40.501059
21
184.882080
0
LINE
8
Capa 1
10
40.501059
20
184.882080
11
43.794237
21
183.437907
0
LINE
8
Capa 1
10
43.794237
20
183.437907
11
46.886597
21
181.850319
0
LINE
8
Capa 1
10
46.886597
20
181.850319
11
49.703230
21
180.235189
0
LINE
8
Capa 1
10
49.703230
20
180.235189
11
53.449730
21
177.861114
0
LINE
8
Capa 1
10
53.449730
20
177.861114
11
55.444943
21
176.707923
0
LINE
8
Capa 1
10
55.444943
20
176.707923
11
57.319260
21
175.879349
0
LINE
8
Capa 1
10
57.319260
20
175.879349
11
57.953566
21
175.738399
0
LINE
8
Capa 1
10
57.953566
20
175.738399
11
58.568620
21
175.889949
0
LINE
8
Capa 1
10
58.568620
20
175.889949
11
58.955275
21
176.361739
0
LINE
8
Capa 1
10
58.955275
20
176.361739
11
59.178220
21
176.936909
0
LINE
8
Capa 1
10
59.178220
20
176.936909
11
59.299548
21
177.721309
0
LINE
8
Capa 1
10
59.299548
20
177.721309
11
59.251400
21
178.594156
0
LINE
8
Capa 1
10
59.251400
20
178.594156
11
58.721222
21
180.550370
0
LINE
8
Capa 1
10
58.721222
20
180.550370
11
57.736777
21
182.695907
0
LINE
8
Capa 1
10
57.736777
20
182.695907
11
56.447158
21
184.921124
0
LINE
8
Capa 1
10
56.447158
20
184.921124
11
53.548759
21
189.172021
0
LINE
8
Capa 1
10
53.548759
20
189.172021
11
51.218760
21
192.425909
0
LINE
8
Capa 1
10
51.218760
20
192.425909
11
49.181503
21
195.684752
0
LINE
8
Capa 1
10
49.181503
20
195.684752
11
47.300020
21
199.037059
0
LINE
8
Capa 1
10
47.300020
20
199.037059
11
45.932847
21
201.777905
0
LINE
8
Capa 1
10
45.932847
20
201.777905
11
44.741412
21
204.636926
0
LINE
8
Capa 1
10
44.741412
20
204.636926
11
43.765002
21
207.588005
0
LINE
8
Capa 1
10
43.765002
20
207.588005
11
43.042906
21
210.605024
0
LINE
8
Capa 1
10
43.042906
20
210.605024
11
42.614411
21
213.661866
0
LINE
8
Capa 1
10
42.614411
20
213.661866
11
42.518805
21
216.732415
0
LINE
8
Capa 1
10
42.518805
20
216.732415
11
42.795375
21
219.790551
0
LINE
8
Capa 1
10
42.795375
20
219.790551
11
43.483410
21
222.810159
0
LINE
8
Capa 1
10
43.483410
20
222.810159
11
44.407853
21
225.199978
0
LINE
8
Capa 1
10
44.407853
20
225.199978
11
45.716991
21
227.434844
0
LINE
8
Capa 1
10
45.716991
20
227.434844
11
47.414221
21
229.367340
0
LINE
8
Capa 1
10
47.414221
20
229.367340
11
48.409432
21
230.174131
0
LINE
8
Capa 1
10
48.409432
20
230.174131
11
49.502940
21
230.850049
0
LINE
8
Capa 1
10
49.502940
20
230.850049
11
51.226635
21
231.562941
0
LINE
8
Capa 1
10
51.226635
20
231.562941
11
53.020285
21
231.950079
0
LINE
8
Capa 1
10
53.020285
20
231.950079
11
54.856760
21
232.048776
0
LINE
8
Capa 1
10
54.856760
20
232.048776
11
56.708929
21
231.896344
0
LINE
8
Capa 1
10
56.708929
20
231.896344
11
58.549662
21
231.530096
0
LINE
8
Capa 1
10
58.549662
20
231.530096
11
60.351828
21
230.987344
0
LINE
8
Capa 1
10
60.351828
20
230.987344
11
63.731940
21
229.521579
0
LINE
8
Capa 1
10
63.731940
20
229.521579
11
66.167858
21
228.133310
0
LINE
8
Capa 1
10
66.167858
20
228.133310
11
67.420385
21
227.472661
0
LINE
8
Capa 1
10
67.420385
20
227.472661
11
68.686530
21
226.969669
0
LINE
8
Capa 1
10
68.686530
20
226.969669
11
68.989610
21
227.012496
0
LINE
8
Capa 1
10
68.989610
20
227.012496
11
69.247447
21
227.165461
0
LINE
8
Capa 1
10
69.247447
20
227.165461
11
69.653682
21
227.950745
0
LINE
8
Capa 1
10
69.653682
20
227.950745
11
69.756505
21
228.847951
0
LINE
8
Capa 1
10
69.756505
20
228.847951
11
69.642306
21
232.058635
0
LINE
8
Capa 1
10
69.642306
20
232.058635
11
69.269143
21
235.255631
0
LINE
8
Capa 1
10
69.269143
20
235.255631
11
68.691590
21
240.380637
0
LINE
8
Capa 1
10
68.691590
20
240.380637
11
68.438086
21
245.528031
0
LINE
8
Capa 1
10
68.438086
20
245.528031
11
68.684908
21
249.446461
0
LINE
8
Capa 1
10
68.684908
20
249.446461
11
69.001716
21
251.390179
0
LINE
8
Capa 1
10
69.001716
20
251.390179
11
69.476245
21
253.291214
0
LINE
8
Capa 1
10
69.476245
20
253.291214
11
70.130087
21
255.125300
0
LINE
8
Capa 1
10
70.130087
20
255.125300
11
70.984834
21
256.868174
0
LINE
8
Capa 1
10
70.984834
20
256.868174
11
72.062080
21
258.495573
0
LINE
8
Capa 1
10
72.062080
20
258.495573
11
73.383416
21
259.983231
0
LINE
8
Capa 1
10
73.383416
20
259.983231
11
74.558279
21
260.998338
0
LINE
8
Capa 1
10
74.558279
20
260.998338
11
75.788975
21
261.825598
0
LINE
8
Capa 1
10
75.788975
20
261.825598
11
77.073794
21
262.480157
0
LINE
8
Capa 1
10
77.073794
20
262.480157
11
78.411024
21
262.977164
0
LINE
8
Capa 1
10
78.411024
20
262.977164
11
81.235868
21
263.559108
0
LINE
8
Capa 1
10
81.235868
20
263.559108
11
84.249816
21
263.692611
0
LINE
8
Capa 1
10
84.249816
20
263.692611
11
84.963662
21
265.576631
0
LINE
8
Capa 1
10
84.963662
20
265.576631
11
85.808212
21
267.405751
0
LINE
8
Capa 1
10
85.808212
20
267.405751
11
86.779498
21
269.170861
0
LINE
8
Capa 1
10
86.779498
20
269.170861
11
87.872488
21
270.863241
0
LINE
8
Capa 1
10
87.872488
20
270.863241
11
89.459582
21
272.983877
0
LINE
8
Capa 1
10
89.459582
20
272.983877
11
91.251761
21
275.043324
0
LINE
8
Capa 1
10
91.251761
20
275.043324
11
93.228067
21
276.993042
0
LINE
8
Capa 1
10
93.228067
20
276.993042
11
95.367539
21
278.784492
0
LINE
8
Capa 1
10
95.367539
20
278.784492
11
97.649217
21
280.369136
0
LINE
8
Capa 1
10
97.649217
20
280.369136
11
100.052142
21
281.698435
0
LINE
8
Capa 1
10
100.052142
20
281.698435
11
102.555352
21
282.723850
0
LINE
8
Capa 1
10
102.555352
20
282.723850
11
105.137888
21
283.396841
0
LINE
8
Capa 1
10
105.137888
20
283.396841
11
105.138000
21
283.397000
 0 
ENDSEC
 0 
EOF