999
"DXF R12 Output" (www.mydxf.blogspot.com)
 0 
SECTION
 2 
HEADER
 9 
$ACADVER
 1 
AC1009
 9 
$EXTMIN
 10 
 0 
 20 
 0 
 9 
$EXTMAX
 10 
 8.5 
 20 
 11 
 0 
ENDSEC
 0 
SECTION
 2 
ENTITIES
0
LINE
8
Capa 1
10
90.143500
20
260.626000
11
90.858349
21
260.546190
0
LINE
8
Capa 1
10
90.858349
20
260.546190
11
91.919808
21
259.945454
0
LINE
8
Capa 1
10
91.919808
20
259.945454
11
93.266910
21
259.008123
0
LINE
8
Capa 1
10
93.266910
20
259.008123
11
95.665789
21
257.194100
0
LINE
8
Capa 1
10
95.665789
20
257.194100
11
97.709348
21
255.387897
0
LINE
8
Capa 1
10
97.709348
20
255.387897
11
99.559159
21
253.355570
0
LINE
8
Capa 1
10
99.559159
20
253.355570
11
102.052160
21
249.989729
0
LINE
8
Capa 1
10
102.052160
20
249.989729
11
104.022193
21
246.386478
0
LINE
8
Capa 1
10
104.022193
20
246.386478
11
105.478286
21
242.515697
0
LINE
8
Capa 1
10
105.478286
20
242.515697
11
106.429469
21
238.347270
0
LINE
8
Capa 1
10
106.429469
20
238.347270
11
106.926643
21
234.034815
0
LINE
8
Capa 1
10
106.926643
20
234.034815
11
107.420629
21
229.723170
0
LINE
8
Capa 1
10
107.420629
20
229.723170
11
107.946539
21
227.601005
0
LINE
8
Capa 1
10
107.946539
20
227.601005
11
108.443330
21
226.640574
0
LINE
8
Capa 1
10
108.443330
20
226.640574
11
109.172019
21
225.889900
0
LINE
8
Capa 1
10
109.172019
20
225.889900
11
109.929841
21
225.585756
0
LINE
8
Capa 1
10
109.929841
20
225.585756
11
110.717225
21
225.657173
0
LINE
8
Capa 1
10
110.717225
20
225.657173
11
111.514358
21
226.019193
0
LINE
8
Capa 1
10
111.514358
20
226.019193
11
112.301427
21
226.586858
0
LINE
8
Capa 1
10
112.301427
20
226.586858
11
113.766120
21
227.999283
0
LINE
8
Capa 1
10
113.766120
20
227.999283
11
114.952799
21
229.214780
0
LINE
8
Capa 1
10
114.952799
20
229.214780
11
116.545798
21
230.440426
0
LINE
8
Capa 1
10
116.545798
20
230.440426
11
117.421014
21
230.907223
0
LINE
8
Capa 1
10
117.421014
20
230.907223
11
118.357879
21
231.225530
0
LINE
8
Capa 1
10
118.357879
20
231.225530
11
118.651539
21
231.290630
0
LINE
8
Capa 1
10
118.651539
20
231.290630
11
118.947899
21
231.340230
0
LINE
8
Capa 1
10
118.947899
20
231.340230
11
119.246309
21
231.374130
0
LINE
8
Capa 1
10
119.246309
20
231.374130
11
119.545739
21
231.392230
0
LINE
8
Capa 1
10
119.545739
20
231.392230
11
119.845839
21
231.394230
0
LINE
8
Capa 1
10
119.845839
20
231.394230
11
120.145429
21
231.380830
0
LINE
8
Capa 1
10
120.145429
20
231.380830
11
120.444179
21
231.351430
0
LINE
8
Capa 1
10
120.444179
20
231.351430
11
120.741229
21
231.306330
0
LINE
8
Capa 1
10
120.741229
20
231.306330
11
121.035719
21
231.245830
0
LINE
8
Capa 1
10
121.035719
20
231.245830
11
121.327159
21
231.169730
0
LINE
8
Capa 1
10
121.327159
20
231.169730
11
121.614709
21
231.078230
0
LINE
8
Capa 1
10
121.614709
20
231.078230
11
121.897649
21
230.971880
0
LINE
8
Capa 1
10
121.897649
20
230.971880
11
122.175339
21
230.850660
0
LINE
8
Capa 1
10
122.175339
20
230.850660
11
122.446909
21
230.714960
0
LINE
8
Capa 1
10
122.446909
20
230.714960
11
122.712029
21
230.565120
0
LINE
8
Capa 1
10
122.712029
20
230.565120
11
122.969839
21
230.401510
0
LINE
8
Capa 1
10
122.969839
20
230.401510
11
124.132459
21
229.373617
0
LINE
8
Capa 1
10
124.132459
20
229.373617
11
124.976820
21
228.143623
0
LINE
8
Capa 1
10
124.976820
20
228.143623
11
125.572663
21
226.740780
0
LINE
8
Capa 1
10
125.572663
20
226.740780
11
125.989729
21
225.194340
0
LINE
8
Capa 1
10
125.989729
20
225.194340
11
126.272961
21
223.505132
0
LINE
8
Capa 1
10
126.272961
20
223.505132
11
126.398195
21
221.802248
0
LINE
8
Capa 1
10
126.398195
20
221.802248
11
126.224027
21
218.391578
0
LINE
8
Capa 1
10
126.224027
20
218.391578
11
125.565947
21
215.034589
0
LINE
8
Capa 1
10
125.565947
20
215.034589
11
124.522679
21
211.803540
0
LINE
8
Capa 1
10
124.522679
20
211.803540
11
122.103051
21
206.280354
0
LINE
8
Capa 1
10
122.103051
20
206.280354
11
121.581266
21
204.797730
0
LINE
8
Capa 1
10
121.581266
20
204.797730
11
121.216838
21
203.325446
0
LINE
8
Capa 1
10
121.216838
20
203.325446
11
121.071824
21
201.889037
0
LINE
8
Capa 1
10
121.071824
20
201.889037
11
121.208279
21
200.514040
0
LINE
8
Capa 1
10
121.208279
20
200.514040
11
121.757688
21
199.084263
0
LINE
8
Capa 1
10
121.757688
20
199.084263
11
122.204676
21
198.470922
0
LINE
8
Capa 1
10
122.204676
20
198.470922
11
122.770619
21
197.994880
0
LINE
8
Capa 1
10
122.770619
20
197.994880
11
123.508148
21
197.694465
0
LINE
8
Capa 1
10
123.508148
20
197.694465
11
124.282628
21
197.638681
0
LINE
8
Capa 1
10
124.282628
20
197.638681
11
125.059686
21
197.774097
0
LINE
8
Capa 1
10
125.059686
20
197.774097
11
125.804949
21
198.047280
0
LINE
8
Capa 1
10
125.804949
20
198.047280
11
127.214973
21
198.821658
0
LINE
8
Capa 1
10
127.214973
20
198.821658
11
128.543106
21
199.767968
0
LINE
8
Capa 1
10
128.543106
20
199.767968
11
131.079109
21
201.835440
0
LINE
8
Capa 1
10
131.079109
20
201.835440
11
133.863861
21
203.914890
0
LINE
8
Capa 1
10
133.863861
20
203.914890
11
136.795338
21
205.760851
0
LINE
8
Capa 1
10
136.795338
20
205.760851
11
139.874675
21
207.288972
0
LINE
8
Capa 1
10
139.874675
20
207.288972
11
143.103009
21
208.414900
0
LINE
8
Capa 1
10
143.103009
20
208.414900
11
145.055030
21
208.849271
0
LINE
8
Capa 1
10
145.055030
20
208.849271
11
147.171896
21
209.137184
0
LINE
8
Capa 1
10
147.171896
20
209.137184
11
149.391513
21
209.261528
0
LINE
8
Capa 1
10
149.391513
20
209.261528
11
151.651784
21
209.205191
0
LINE
8
Capa 1
10
151.651784
20
209.205191
11
153.890614
21
208.951063
0
LINE
8
Capa 1
10
153.890614
20
208.951063
11
156.045909
21
208.482033
0
LINE
8
Capa 1
10
156.045909
20
208.482033
11
158.055572
21
207.780989
0
LINE
8
Capa 1
10
158.055572
20
207.780989
11
159.857509
21
206.830820
0
LINE
8
Capa 1
10
159.857509
20
206.830820
11
159.958049
21
206.764820
0
LINE
8
Capa 1
10
159.958049
20
206.764820
11
160.212809
21
205.805630
0
LINE
8
Capa 1
10
160.212809
20
205.805630
11
160.517426
21
202.978944
0
LINE
8
Capa 1
10
160.517426
20
202.978944
11
160.486262
21
200.078242
0
LINE
8
Capa 1
10
160.486262
20
200.078242
11
160.147979
21
197.149560
0
LINE
8
Capa 1
10
160.147979
20
197.149560
11
159.531244
21
194.238935
0
LINE
8
Capa 1
10
159.531244
20
194.238935
11
158.664719
21
191.392403
0
LINE
8
Capa 1
10
158.664719
20
191.392403
11
157.577069
21
188.656001
0
LINE
8
Capa 1
10
157.577069
20
188.656001
11
156.296958
21
186.075764
0
LINE
8
Capa 1
10
156.296958
20
186.075764
11
154.853049
21
183.697730
0
LINE
8
Capa 1
10
154.853049
20
183.697730
11
152.374939
21
180.317050
0
LINE
8
Capa 1
10
152.374939
20
180.317050
11
151.154927
21
178.820415
0
LINE
8
Capa 1
10
151.154927
20
178.820415
11
150.014519
21
177.257060
0
LINE
8
Capa 1
10
150.014519
20
177.257060
11
149.247937
21
175.762481
0
LINE
8
Capa 1
10
149.247937
20
175.762481
11
149.016219
21
174.918051
0
LINE
8
Capa 1
10
149.016219
20
174.918051
11
149.024879
21
174.125500
0
LINE
8
Capa 1
10
149.024879
20
174.125500
11
149.251936
21
173.715916
0
LINE
8
Capa 1
10
149.251936
20
173.715916
11
149.660749
21
173.520900
0
LINE
8
Capa 1
10
149.660749
20
173.520900
11
150.639851
21
173.540973
0
LINE
8
Capa 1
10
150.639851
20
173.540973
11
151.875128
21
173.791853
0
LINE
8
Capa 1
10
151.875128
20
173.791853
11
153.159858
21
174.086626
0
LINE
8
Capa 1
10
153.159858
20
174.086626
11
154.287319
21
174.238380
0
LINE
8
Capa 1
10
154.287319
20
174.238380
11
154.745029
21
174.228380
0
LINE
8
Capa 1
10
154.745029
20
174.228380
11
155.201049
21
174.185580
0
LINE
8
Capa 1
10
155.201049
20
174.185580
11
155.653329
21
174.110080
0
LINE
8
Capa 1
10
155.653329
20
174.110080
11
156.099829
21
174.002100
0
LINE
8
Capa 1
10
156.099829
20
174.002100
11
156.538359
21
173.862040
0
LINE
8
Capa 1
10
156.538359
20
173.862040
11
156.967189
21
173.690820
0
LINE
8
Capa 1
10
156.967189
20
173.690820
11
157.383979
21
173.489170
0
LINE
8
Capa 1
10
157.383979
20
173.489170
11
157.787179
21
173.257800
0
LINE
8
Capa 1
10
157.787179
20
173.257800
11
158.595414
21
172.637939
0
LINE
8
Capa 1
10
158.595414
20
172.637939
11
159.258948
21
171.882378
0
LINE
8
Capa 1
10
159.258948
20
171.882378
11
159.763960
21
170.998164
0
LINE
8
Capa 1
10
159.763960
20
170.998164
11
160.096629
21
169.992350
0
LINE
8
Capa 1
10
160.096629
20
169.992350
11
160.267410
21
168.864640
0
LINE
8
Capa 1
10
160.267410
20
168.864640
11
160.288907
21
167.706813
0
LINE
8
Capa 1
10
160.288907
20
167.706813
11
159.960171
21
165.364544
0
LINE
8
Capa 1
10
159.960171
20
165.364544
11
159.262672
21
163.093005
0
LINE
8
Capa 1
10
159.262672
20
163.093005
11
158.348659
21
161.019660
0
LINE
8
Capa 1
10
158.348659
20
161.019660
11
156.638235
21
158.128218
0
LINE
8
Capa 1
10
156.638235
20
158.128218
11
154.555629
21
155.431208
0
LINE
8
Capa 1
10
154.555629
20
155.431208
11
152.168261
21
152.935450
0
LINE
8
Capa 1
10
152.168261
20
152.935450
11
149.543549
21
150.647764
0
LINE
8
Capa 1
10
149.543549
20
150.647764
11
146.748914
21
148.574971
0
LINE
8
Capa 1
10
146.748914
20
148.574971
11
143.851774
21
146.723893
0
LINE
8
Capa 1
10
143.851774
20
146.723893
11
140.919549
21
145.101349
0
LINE
8
Capa 1
10
140.919549
20
145.101349
11
138.019659
21
143.714160
0
LINE
8
Capa 1
10
138.019659
20
143.714160
11
132.021499
21
141.331930
0
LINE
8
Capa 1
10
132.021499
20
141.331930
11
128.735769
21
140.232014
0
LINE
8
Capa 1
10
128.735769
20
140.232014
11
124.905300
21
138.791939
0
LINE
8
Capa 1
10
124.905300
20
138.791939
11
123.053246
21
137.912715
0
LINE
8
Capa 1
10
123.053246
20
137.912715
11
121.385956
21
136.910501
0
LINE
8
Capa 1
10
121.385956
20
136.910501
11
120.010412
21
135.772646
0
LINE
8
Capa 1
10
120.010412
20
135.772646
11
119.033599
21
134.486500
0
LINE
8
Capa 1
10
119.033599
20
134.486500
11
118.745090
21
133.720170
0
LINE
8
Capa 1
10
118.745090
20
133.720170
11
118.762529
21
132.901520
0
LINE
8
Capa 1
10
118.762529
20
132.901520
11
119.086281
21
132.319818
0
LINE
8
Capa 1
10
119.086281
20
132.319818
11
119.651690
21
131.912802
0
LINE
8
Capa 1
10
119.651690
20
131.912802
11
121.242918
21
131.492464
0
LINE
8
Capa 1
10
121.242918
20
131.492464
11
124.415099
21
131.314000
0
LINE
8
Capa 1
10
124.415099
20
131.314000
11
126.071400
21
130.979943
0
LINE
8
Capa 1
10
126.071400
20
130.979943
11
127.614339
21
130.271110
0
LINE
8
Capa 1
10
127.614339
20
130.271110
11
128.229243
21
129.767390
0
LINE
8
Capa 1
10
128.229243
20
129.767390
11
128.719731
21
129.165065
0
LINE
8
Capa 1
10
128.719731
20
129.165065
11
129.080549
21
128.467040
0
LINE
8
Capa 1
10
129.080549
20
128.467040
11
129.306439
21
127.676220
0
LINE
8
Capa 1
10
129.306439
20
127.676220
11
129.410967
21
126.709257
0
LINE
8
Capa 1
10
129.410967
20
126.709257
11
129.369260
21
125.768184
0
LINE
8
Capa 1
10
129.369260
20
125.768184
11
128.916484
21
123.971405
0
LINE
8
Capa 1
10
128.916484
20
123.971405
11
128.086796
21
122.301271
0
LINE
8
Capa 1
10
128.086796
20
122.301271
11
127.018879
21
120.773170
0
LINE
8
Capa 1
10
127.018879
20
120.773170
11
125.160729
21
118.693277
0
LINE
8
Capa 1
10
125.160729
20
118.693277
11
123.059972
21
116.827129
0
LINE
8
Capa 1
10
123.059972
20
116.827129
11
120.763723
21
115.163953
0
LINE
8
Capa 1
10
120.763723
20
115.163953
11
118.319100
21
113.692974
0
LINE
8
Capa 1
10
118.319100
20
113.692974
11
115.773218
21
112.403420
0
LINE
8
Capa 1
10
115.773218
20
112.403420
11
113.173193
21
111.284516
0
LINE
8
Capa 1
10
113.173193
20
111.284516
11
107.999179
21
109.515570
0
LINE
8
Capa 1
10
107.999179
20
109.515570
11
103.718759
21
108.344195
0
LINE
8
Capa 1
10
103.718759
20
108.344195
11
101.607826
21
107.640755
0
LINE
8
Capa 1
10
101.607826
20
107.640755
11
99.586749
21
106.715020
0
LINE
8
Capa 1
10
99.586749
20
106.715020
11
99.066699
21
106.403570
0
LINE
8
Capa 1
10
99.066699
20
106.403570
11
98.566018
21
106.058240
0
LINE
8
Capa 1
10
98.566018
20
106.058240
11
98.086392
21
105.680300
0
LINE
8
Capa 1
10
98.086392
20
105.680300
11
97.629870
21
105.271180
0
LINE
8
Capa 1
10
97.629870
20
105.271180
11
97.197969
21
104.832540
0
LINE
8
Capa 1
10
97.197969
20
104.832540
11
96.792738
21
104.366000
0
LINE
8
Capa 1
10
96.792738
20
104.366000
11
96.415523
21
103.873360
0
LINE
8
Capa 1
10
96.415523
20
103.873360
11
96.067694
21
103.356630
0
LINE
8
Capa 1
10
96.067694
20
103.356630
11
95.177839
21
101.494721
0
LINE
8
Capa 1
10
95.177839
20
101.494721
11
94.693116
21
99.517629
0
LINE
8
Capa 1
10
94.693116
20
99.517629
11
94.539840
21
97.458618
0
LINE
8
Capa 1
10
94.539840
20
97.458618
11
94.644326
21
95.350949
0
LINE
8
Capa 1
10
94.644326
20
95.350949
11
95.331848
21
91.122684
0
LINE
8
Capa 1
10
95.331848
20
91.122684
11
96.166204
21
87.098930
0
LINE
8
Capa 1
10
96.166204
20
87.098930
11
95.208823
21
85.815185
0
LINE
8
Capa 1
10
95.208823
20
85.815185
11
94.026604
21
84.593810
0
LINE
8
Capa 1
10
94.026604
20
84.593810
11
92.696147
21
83.582653
0
LINE
8
Capa 1
10
92.696147
20
83.582653
11
91.294054
21
82.929560
0
LINE
8
Capa 1
10
91.294054
20
82.929560
11
90.602302
21
82.986193
0
LINE
8
Capa 1
10
90.602302
20
82.986193
11
89.982904
21
83.306420
0
LINE
8
Capa 1
10
89.982904
20
83.306420
11
89.698931
21
83.695443
0
LINE
8
Capa 1
10
89.698931
20
83.695443
11
89.559666
21
84.167220
0
LINE
8
Capa 1
10
89.559666
20
84.167220
11
89.554014
21
85.804149
0
LINE
8
Capa 1
10
89.554014
20
85.804149
11
89.716764
21
87.446260
0
LINE
8
Capa 1
10
89.716764
20
87.446260
11
90.224067
21
94.290600
0
LINE
8
Capa 1
10
90.224067
20
94.290600
11
90.372244
21
96.057625
0
LINE
8
Capa 1
10
90.372244
20
96.057625
11
90.406644
21
97.824920
0
LINE
8
Capa 1
10
90.406644
20
97.824920
11
90.017455
21
99.397285
0
LINE
8
Capa 1
10
90.017455
20
99.397285
11
89.309664
21
100.851570
0
LINE
8
Capa 1
10
89.309664
20
100.851570
11
88.065578
21
102.817763
0
LINE
8
Capa 1
10
88.065578
20
102.817763
11
86.475914
21
104.478480
0
LINE
8
Capa 1
10
86.475914
20
104.478480
11
84.614034
21
105.773173
0
LINE
8
Capa 1
10
84.614034
20
105.773173
11
82.454077
21
106.861776
0
LINE
8
Capa 1
10
82.454077
20
106.861776
11
80.079096
21
107.788096
0
LINE
8
Capa 1
10
80.079096
20
107.788096
11
77.572145
21
108.595940
0
LINE
8
Capa 1
10
77.572145
20
108.595940
11
72.494548
21
110.031424
0
LINE
8
Capa 1
10
72.494548
20
110.031424
11
67.885714
21
111.518680
0
LINE
8
Capa 1
10
67.885714
20
111.518680
11
64.761538
21
112.885078
0
LINE
8
Capa 1
10
64.761538
20
112.885078
11
61.773641
21
114.501964
0
LINE
8
Capa 1
10
61.773641
20
114.501964
11
58.937931
21
116.398808
0
LINE
8
Capa 1
10
58.937931
20
116.398808
11
56.270314
21
118.605080
0
LINE
8
Capa 1
10
56.270314
20
118.605080
11
54.704369
21
120.182800
0
LINE
8
Capa 1
10
54.704369
20
120.182800
11
53.281246
21
122.013984
0
LINE
8
Capa 1
10
53.281246
20
122.013984
11
52.214655
21
124.065643
0
LINE
8
Capa 1
10
52.214655
20
124.065643
11
51.881843
21
125.163842
0
LINE
8
Capa 1
10
51.881843
20
125.163842
11
51.718304
21
126.304790
0
LINE
8
Capa 1
10
51.718304
20
126.304790
11
51.743410
21
127.241351
0
LINE
8
Capa 1
10
51.743410
20
127.241351
11
51.933297
21
128.144245
0
LINE
8
Capa 1
10
51.933297
20
128.144245
11
52.288618
21
128.986531
0
LINE
8
Capa 1
10
52.288618
20
128.986531
11
52.810024
21
129.741270
0
LINE
8
Capa 1
10
52.810024
20
129.741270
11
53.554020
21
130.454499
0
LINE
8
Capa 1
10
53.554020
20
130.454499
11
54.336479
21
130.942286
0
LINE
8
Capa 1
10
54.336479
20
130.942286
11
55.153828
21
131.246936
0
LINE
8
Capa 1
10
55.153828
20
131.246936
11
56.002495
21
131.410754
0
LINE
8
Capa 1
10
56.002495
20
131.410754
11
57.779491
21
131.485117
0
LINE
8
Capa 1
10
57.779491
20
131.485117
11
59.638884
21
131.503820
0
LINE
8
Capa 1
10
59.638884
20
131.503820
11
61.025275
21
131.744666
0
LINE
8
Capa 1
10
61.025275
20
131.744666
11
61.685511
21
132.038435
0
LINE
8
Capa 1
10
61.685511
20
132.038435
11
62.205824
21
132.487090
0
LINE
8
Capa 1
10
62.205824
20
132.487090
11
62.442705
21
132.941953
0
LINE
8
Capa 1
10
62.442705
20
132.941953
11
62.488774
21
133.459860
0
LINE
8
Capa 1
10
62.488774
20
133.459860
11
62.140317
21
134.554373
0
LINE
8
Capa 1
10
62.140317
20
134.554373
11
61.421235
21
135.578428
0
LINE
8
Capa 1
10
61.421235
20
135.578428
11
60.517168
21
136.458306
0
LINE
8
Capa 1
10
60.517168
20
136.458306
11
59.613754
21
137.120290
0
LINE
8
Capa 1
10
59.613754
20
137.120290
11
57.304666
21
138.340237
0
LINE
8
Capa 1
10
57.304666
20
138.340237
11
54.654389
21
139.437613
0
LINE
8
Capa 1
10
54.654389
20
139.437613
11
49.451454
21
141.307590
0
LINE
8
Capa 1
10
49.451454
20
141.307590
11
44.467492
21
143.310385
0
LINE
8
Capa 1
10
44.467492
20
143.310385
11
39.346360
21
145.782803
0
LINE
8
Capa 1
10
39.346360
20
145.782803
11
34.446000
21
148.685438
0
LINE
8
Capa 1
10
34.446000
20
148.685438
11
32.190466
21
150.285775
0
LINE
8
Capa 1
10
32.190466
20
150.285775
11
30.124354
21
151.978890
0
LINE
8
Capa 1
10
30.124354
20
151.978890
11
26.899880
21
155.153902
0
LINE
8
Capa 1
10
26.899880
20
155.153902
11
25.381305
21
156.944027
0
LINE
8
Capa 1
10
25.381305
20
156.944027
11
23.991876
21
158.856815
0
LINE
8
Capa 1
10
23.991876
20
158.856815
11
22.781622
21
160.882957
0
LINE
8
Capa 1
10
22.781622
20
160.882957
11
21.800569
21
163.013140
0
LINE
8
Capa 1
10
21.800569
20
163.013140
11
21.098747
21
165.238055
0
LINE
8
Capa 1
10
21.098747
20
165.238055
11
20.726184
21
167.548390
0
LINE
8
Capa 1
10
20.726184
20
167.548390
11
20.677191
21
168.799446
0
LINE
8
Capa 1
10
20.677191
20
168.799446
11
20.778410
21
170.060895
0
LINE
8
Capa 1
10
20.778410
20
170.060895
11
21.104071
21
171.258407
0
LINE
8
Capa 1
10
21.104071
20
171.258407
11
21.728404
21
172.317650
0
LINE
8
Capa 1
10
21.728404
20
172.317650
11
22.520929
21
173.093010
0
LINE
8
Capa 1
10
22.520929
20
173.093010
11
23.385627
21
173.624849
0
LINE
8
Capa 1
10
23.385627
20
173.624849
11
24.307780
21
173.947434
0
LINE
8
Capa 1
10
24.307780
20
173.947434
11
25.272673
21
174.095033
0
LINE
8
Capa 1
10
25.272673
20
174.095033
11
27.271812
21
174.002338
0
LINE
8
Capa 1
10
27.271812
20
174.002338
11
29.265314
21
173.620900
0
LINE
8
Capa 1
10
29.265314
20
173.620900
11
30.322703
21
173.374242
0
LINE
8
Capa 1
10
30.322703
20
173.374242
11
31.394234
21
173.293500
0
LINE
8
Capa 1
10
31.394234
20
173.293500
11
31.726904
21
173.397002
0
LINE
8
Capa 1
10
31.726904
20
173.397002
11
31.978307
21
173.649710
0
LINE
8
Capa 1
10
31.978307
20
173.649710
11
31.956801
21
174.485869
0
LINE
8
Capa 1
10
31.956801
20
174.485869
11
31.627965
21
175.464486
0
LINE
8
Capa 1
10
31.627965
20
175.464486
11
30.361594
21
177.635200
0
LINE
8
Capa 1
10
30.361594
20
177.635200
11
27.587137
21
181.333290
0
LINE
8
Capa 1
10
27.587137
20
181.333290
11
26.076786
21
183.577417
0
LINE
8
Capa 1
10
26.076786
20
183.577417
11
24.708207
21
185.922090
0
LINE
8
Capa 1
10
24.708207
20
185.922090
11
22.899492
21
189.906402
0
LINE
8
Capa 1
10
22.899492
20
189.906402
11
21.631354
21
193.962831
0
LINE
8
Capa 1
10
21.631354
20
193.962831
11
20.910848
21
198.163765
0
LINE
8
Capa 1
10
20.910848
20
198.163765
11
20.745027
21
202.581590
0
LINE
8
Capa 1
10
20.745027
20
202.581590
11
20.803855
21
204.421315
0
LINE
8
Capa 1
10
20.803855
20
204.421315
11
21.088780
21
206.219190
0
LINE
8
Capa 1
10
21.088780
20
206.219190
11
21.291495
21
206.596671
0
LINE
8
Capa 1
10
21.291495
20
206.596671
11
21.604600
21
206.883836
0
LINE
8
Capa 1
10
21.604600
20
206.883836
11
22.349320
21
207.294510
0
LINE
8
Capa 1
10
22.349320
20
207.294510
11
24.184090
21
208.074492
0
LINE
8
Capa 1
10
24.184090
20
208.074492
11
26.120307
21
208.660402
0
LINE
8
Capa 1
10
26.120307
20
208.660402
11
28.128597
21
209.057103
0
LINE
8
Capa 1
10
28.128597
20
209.057103
11
30.179589
21
209.269460
0
LINE
8
Capa 1
10
30.179589
20
209.269460
11
32.243909
21
209.302336
0
LINE
8
Capa 1
10
32.243909
20
209.302336
11
34.292186
21
209.160595
0
LINE
8
Capa 1
10
34.292186
20
209.160595
11
36.295047
21
208.849102
0
LINE
8
Capa 1
10
36.295047
20
208.849102
11
38.223120
21
208.372720
0
LINE
8
Capa 1
10
38.223120
20
208.372720
11
40.398706
21
207.609775
0
LINE
8
Capa 1
10
40.398706
20
207.609775
11
42.535186
21
206.636174
0
LINE
8
Capa 1
10
42.535186
20
206.636174
11
44.595431
21
205.485105
0
LINE
8
Capa 1
10
44.595431
20
205.485105
11
46.542310
21
204.189760
0
LINE
8
Capa 1
10
46.542310
20
204.189760
11
50.645282
21
200.898089
0
LINE
8
Capa 1
10
50.645282
20
200.898089
11
52.776118
21
199.360111
0
LINE
8
Capa 1
10
52.776118
20
199.360111
11
55.055620
21
198.190450
0
LINE
8
Capa 1
10
55.055620
20
198.190450
11
56.856565
21
197.752335
0
LINE
8
Capa 1
10
56.856565
20
197.752335
11
57.786915
21
197.777370
0
LINE
8
Capa 1
10
57.786915
20
197.777370
11
58.650760
21
198.057110
0
LINE
8
Capa 1
10
58.650760
20
198.057110
11
59.241402
21
198.479249
0
LINE
8
Capa 1
10
59.241402
20
198.479249
11
59.671375
21
199.016539
0
LINE
8
Capa 1
10
59.671375
20
199.016539
11
59.955751
21
199.653642
0
LINE
8
Capa 1
10
59.955751
20
199.653642
11
60.109600
21
200.375223
0
LINE
8
Capa 1
10
60.109600
20
200.375223
11
60.086002
21
202.010475
0
LINE
8
Capa 1
10
60.086002
20
202.010475
11
59.721145
21
203.799609
0
LINE
8
Capa 1
10
59.721145
20
203.799609
11
58.449922
21
207.348770
0
LINE
8
Capa 1
10
58.449922
20
207.348770
11
57.260460
21
210.041210
0
LINE
8
Capa 1
10
57.260460
20
210.041210
11
56.095370
21
213.286730
0
LINE
8
Capa 1
10
56.095370
20
213.286730
11
55.323760
21
216.351406
0
LINE
8
Capa 1
10
55.323760
20
216.351406
11
54.875231
21
219.532944
0
LINE
8
Capa 1
10
54.875231
20
219.532944
11
54.880392
21
222.728550
0
LINE
8
Capa 1
10
54.880392
20
222.728550
11
55.093923
21
224.299505
0
LINE
8
Capa 1
10
55.093923
20
224.299505
11
55.469856
21
225.835430
0
LINE
8
Capa 1
10
55.469856
20
225.835430
11
56.041952
21
227.383706
0
LINE
8
Capa 1
10
56.041952
20
227.383706
11
56.809304
21
228.784814
0
LINE
8
Capa 1
10
56.809304
20
228.784814
11
57.817434
21
229.980322
0
LINE
8
Capa 1
10
57.817434
20
229.980322
11
59.111866
21
230.911800
0
LINE
8
Capa 1
10
59.111866
20
230.911800
11
60.069063
21
231.294471
0
LINE
8
Capa 1
10
60.069063
20
231.294471
11
61.048293
21
231.449722
0
LINE
8
Capa 1
10
61.048293
20
231.449722
11
62.033471
21
231.403881
0
LINE
8
Capa 1
10
62.033471
20
231.403881
11
63.008510
21
231.183279
0
LINE
8
Capa 1
10
63.008510
20
231.183279
11
64.863829
21
230.323111
0
LINE
8
Capa 1
10
64.863829
20
230.323111
11
66.485566
21
229.079860
0
LINE
8
Capa 1
10
66.485566
20
229.079860
11
68.443250
21
227.040275
0
LINE
8
Capa 1
10
68.443250
20
227.040275
11
69.522066
21
226.089551
0
LINE
8
Capa 1
10
69.522066
20
226.089551
11
70.669696
21
225.469080
0
LINE
8
Capa 1
10
70.669696
20
225.469080
11
71.149978
21
225.390652
0
LINE
8
Capa 1
10
71.149978
20
225.390652
11
71.614847
21
225.527580
0
LINE
8
Capa 1
10
71.614847
20
225.527580
11
72.233841
21
226.180789
0
LINE
8
Capa 1
10
72.233841
20
226.180789
11
72.745950
21
227.227392
0
LINE
8
Capa 1
10
72.745950
20
227.227392
11
73.498372
21
230.033610
0
LINE
8
Capa 1
10
73.498372
20
230.033610
11
74.258037
21
235.227900
0
LINE
8
Capa 1
10
74.258037
20
235.227900
11
75.032839
21
239.475540
0
LINE
8
Capa 1
10
75.032839
20
239.475540
11
76.228713
21
243.763124
0
LINE
8
Capa 1
10
76.228713
20
243.763124
11
77.899326
21
247.831465
0
LINE
8
Capa 1
10
77.899326
20
247.831465
11
78.931429
21
249.752804
0
LINE
8
Capa 1
10
78.931429
20
249.752804
11
80.104738
21
251.582593
0
LINE
8
Capa 1
10
80.104738
20
251.582593
11
81.426763
21
253.308587
0
LINE
8
Capa 1
10
81.426763
20
253.308587
11
82.905009
21
254.918540
0
LINE
8
Capa 1
10
82.905009
20
254.918540
11
84.985420
21
256.778380
0
LINE
8
Capa 1
10
84.985420
20
256.778380
11
87.183409
21
258.478560
0
LINE
8
Capa 1
10
87.183409
20
258.478560
11
90.143349
21
260.625510
0
LINE
8
Capa 1
10
90.143349
20
260.625510
11
90.143500
21
260.626000
 0 
ENDSEC
 0 
EOF