999
"DXF R12 Output" (www.mydxf.blogspot.com)
 0 
SECTION
 2 
HEADER
 9 
$ACADVER
 1 
AC1009
 9 
$EXTMIN
 10 
 0 
 20 
 0 
 9 
$EXTMAX
 10 
 8.5 
 20 
 11 
 0 
ENDSEC
 0 
SECTION
 2 
ENTITIES
0
LINE
8
Layer 1
10
113.747000
20
89.381900
11
112.632028
21
89.718658
0
LINE
8
Layer 1
10
112.632028
20
89.718658
11
111.765325
21
89.571787
0
LINE
8
Layer 1
10
111.765325
20
89.571787
11
111.125159
21
88.976548
0
LINE
8
Layer 1
10
111.125159
20
88.976548
11
110.689800
21
87.968200
0
LINE
8
Layer 1
10
110.689800
20
87.968200
11
110.111226
21
85.187803
0
LINE
8
Layer 1
10
110.111226
20
85.187803
11
109.588777
21
81.657009
0
LINE
8
Layer 1
10
109.588777
20
81.657009
11
109.004323
21
77.737243
0
LINE
8
Layer 1
10
109.004323
20
77.737243
11
108.239738
21
73.789925
0
LINE
8
Layer 1
10
108.239738
20
73.789925
11
107.176891
21
70.176479
0
LINE
8
Layer 1
10
107.176891
20
70.176479
11
106.496704
21
68.607903
0
LINE
8
Layer 1
10
106.496704
20
68.607903
11
105.697655
21
67.258328
0
LINE
8
Layer 1
10
105.697655
20
67.258328
11
104.764975
21
66.172933
0
LINE
8
Layer 1
10
104.764975
20
66.172933
11
103.683901
21
65.396894
0
LINE
8
Layer 1
10
103.683901
20
65.396894
11
102.439664
21
64.975391
0
LINE
8
Layer 1
10
102.439664
20
64.975391
11
101.017500
21
64.953600
0
LINE
8
Layer 1
10
101.017500
20
64.953600
11
98.968430
21
65.271047
0
LINE
8
Layer 1
10
98.968430
20
65.271047
11
97.833899
21
65.549270
0
LINE
8
Layer 1
10
97.833899
20
65.549270
11
96.769313
21
65.945100
0
LINE
8
Layer 1
10
96.769313
20
65.945100
11
95.882124
21
66.486993
0
LINE
8
Layer 1
10
95.882124
20
66.486993
11
95.279789
21
67.203403
0
LINE
8
Layer 1
10
95.279789
20
67.203403
11
95.069763
21
68.122787
0
LINE
8
Layer 1
10
95.069763
20
68.122787
11
95.359500
21
69.273600
0
LINE
8
Layer 1
10
95.359500
20
69.273600
11
96.470195
21
71.705939
0
LINE
8
Layer 1
10
96.470195
20
71.705939
11
97.448113
21
74.063887
0
LINE
8
Layer 1
10
97.448113
20
74.063887
11
98.096273
21
76.332342
0
LINE
8
Layer 1
10
98.096273
20
76.332342
11
98.235140
21
77.428290
0
LINE
8
Layer 1
10
98.235140
20
77.428290
11
98.217700
21
78.496200
0
LINE
8
Layer 1
10
98.217700
20
78.496200
11
97.887564
21
80.309926
0
LINE
8
Layer 1
10
97.887564
20
80.309926
11
97.296532
21
81.889241
0
LINE
8
Layer 1
10
97.296532
20
81.889241
11
96.472173
21
83.238701
0
LINE
8
Layer 1
10
96.472173
20
83.238701
11
95.442053
21
84.362861
0
LINE
8
Layer 1
10
95.442053
20
84.362861
11
94.233739
21
85.266277
0
LINE
8
Layer 1
10
94.233739
20
85.266277
11
92.874797
21
85.953503
0
LINE
8
Layer 1
10
92.874797
20
85.953503
11
91.392795
21
86.429097
0
LINE
8
Layer 1
10
91.392795
20
86.429097
11
89.815300
21
86.697612
0
LINE
8
Layer 1
10
89.815300
20
86.697612
11
88.169878
21
86.763606
0
LINE
8
Layer 1
10
88.169878
20
86.763606
11
86.484096
21
86.631633
0
LINE
8
Layer 1
10
86.484096
20
86.631633
11
84.785522
21
86.306248
0
LINE
8
Layer 1
10
84.785522
20
86.306248
11
83.101722
21
85.792008
0
LINE
8
Layer 1
10
83.101722
20
85.792008
11
81.460263
21
85.093467
0
LINE
8
Layer 1
10
81.460263
20
85.093467
11
79.888711
21
84.215182
0
LINE
8
Layer 1
10
79.888711
20
84.215182
11
78.414635
21
83.161708
0
LINE
8
Layer 1
10
78.414635
20
83.161708
11
77.065600
21
81.937600
0
LINE
8
Layer 1
10
77.065600
20
81.937600
11
76.619911
21
81.583197
0
LINE
8
Layer 1
10
76.619911
20
81.583197
11
76.151938
21
81.405550
0
LINE
8
Layer 1
10
76.151938
20
81.405550
11
75.039300
21
81.440800
0
LINE
8
Layer 1
10
75.039300
20
81.440800
11
69.500270
21
82.263717
0
LINE
8
Layer 1
10
69.500270
20
82.263717
11
63.820062
21
82.825662
0
LINE
8
Layer 1
10
63.820062
20
82.825662
11
58.014998
21
83.144402
0
LINE
8
Layer 1
10
58.014998
20
83.144402
11
52.101400
21
83.237700
0
LINE
8
Layer 1
10
52.101400
20
83.237700
11
51.007413
21
83.269750
0
LINE
8
Layer 1
10
51.007413
20
83.269750
11
50.896989
21
83.467959
0
LINE
8
Layer 1
10
50.896989
20
83.467959
11
51.145600
21
83.925800
0
LINE
8
Layer 1
10
51.145600
20
83.925800
11
52.235557
21
85.750038
0
LINE
8
Layer 1
10
52.235557
20
85.750038
11
52.871427
21
87.503301
0
LINE
8
Layer 1
10
52.871427
20
87.503301
11
53.093432
21
89.183936
0
LINE
8
Layer 1
10
53.093432
20
89.183936
11
52.941792
21
90.790292
0
LINE
8
Layer 1
10
52.941792
20
90.790292
11
52.456727
21
92.320717
0
LINE
8
Layer 1
10
52.456727
20
92.320717
11
51.678458
21
93.773560
0
LINE
8
Layer 1
10
51.678458
20
93.773560
11
50.647205
21
95.147167
0
LINE
8
Layer 1
10
50.647205
20
95.147167
11
49.403188
21
96.439887
0
LINE
8
Layer 1
10
49.403188
20
96.439887
11
47.986627
21
97.650069
0
LINE
8
Layer 1
10
47.986627
20
97.650069
11
46.437744
21
98.776061
0
LINE
8
Layer 1
10
46.437744
20
98.776061
11
43.103889
21
100.768864
0
LINE
8
Layer 1
10
43.103889
20
100.768864
11
39.723387
21
102.405082
0
LINE
8
Layer 1
10
39.723387
20
102.405082
11
36.618000
21
103.671500
0
LINE
8
Layer 1
10
36.618000
20
103.671500
11
35.770830
21
104.050747
0
LINE
8
Layer 1
10
35.770830
20
104.050747
11
35.476962
21
104.386250
0
LINE
8
Layer 1
10
35.476962
20
104.386250
11
35.691464
21
104.760978
0
LINE
8
Layer 1
10
35.691464
20
104.760978
11
36.369400
21
105.257900
0
LINE
8
Layer 1
10
36.369400
20
105.257900
11
38.203475
21
106.586305
0
LINE
8
Layer 1
10
38.203475
20
106.586305
11
39.797740
21
108.004915
0
LINE
8
Layer 1
10
39.797740
20
108.004915
11
41.149203
21
109.499285
0
LINE
8
Layer 1
10
41.149203
20
109.499285
11
42.254867
21
111.054967
0
LINE
8
Layer 1
10
42.254867
20
111.054967
11
43.111740
21
112.657517
0
LINE
8
Layer 1
10
43.111740
20
112.657517
11
43.716826
21
114.292488
0
LINE
8
Layer 1
10
43.716826
20
114.292488
11
44.067132
21
115.945436
0
LINE
8
Layer 1
10
44.067132
20
115.945436
11
44.159662
21
117.601912
0
LINE
8
Layer 1
10
44.159662
20
117.601912
11
43.991424
21
119.247473
0
LINE
8
Layer 1
10
43.991424
20
119.247473
11
43.559422
21
120.867672
0
LINE
8
Layer 1
10
43.559422
20
120.867672
11
42.860663
21
122.448064
0
LINE
8
Layer 1
10
42.860663
20
122.448064
11
41.892152
21
123.974202
0
LINE
8
Layer 1
10
41.892152
20
123.974202
11
40.650894
21
125.431640
0
LINE
8
Layer 1
10
40.650894
20
125.431640
11
39.133896
21
126.805933
0
LINE
8
Layer 1
10
39.133896
20
126.805933
11
37.338162
21
128.082635
0
LINE
8
Layer 1
10
37.338162
20
128.082635
11
35.260700
21
129.247300
0
LINE
8
Layer 1
10
35.260700
20
129.247300
11
34.612073
21
129.581245
0
LINE
8
Layer 1
10
34.612073
20
129.581245
11
34.368662
21
129.814513
0
LINE
8
Layer 1
10
34.368662
20
129.814513
11
34.480470
21
130.089123
0
LINE
8
Layer 1
10
34.480470
20
130.089123
11
34.897500
21
130.547100
0
LINE
8
Layer 1
10
34.897500
20
130.547100
11
38.336852
21
134.406073
0
LINE
8
Layer 1
10
38.336852
20
134.406073
11
39.167703
21
135.592136
0
LINE
8
Layer 1
10
39.167703
20
135.592136
11
39.534238
21
136.516263
0
LINE
8
Layer 1
10
39.534238
20
136.516263
11
39.532630
21
137.353712
0
LINE
8
Layer 1
10
39.532630
20
137.353712
11
39.259055
21
138.279745
0
LINE
8
Layer 1
10
39.259055
20
138.279745
11
38.280700
21
141.098600
0
LINE
8
Layer 1
10
38.280700
20
141.098600
11
37.897418
21
142.808147
0
LINE
8
Layer 1
10
37.897418
20
142.808147
11
37.685953
21
144.543255
0
LINE
8
Layer 1
10
37.685953
20
144.543255
11
37.682525
21
148.073888
0
LINE
8
Layer 1
10
37.682525
20
148.073888
11
38.078509
21
151.657977
0
LINE
8
Layer 1
10
38.078509
20
151.657977
11
38.682000
21
155.263000
0
LINE
8
Layer 1
10
38.682000
20
155.263000
11
38.820552
21
155.861131
0
LINE
8
Layer 1
10
38.820552
20
155.861131
11
39.027438
21
156.103500
0
LINE
8
Layer 1
10
39.027438
20
156.103500
11
39.410480
21
156.021194
0
LINE
8
Layer 1
10
39.410480
20
156.021194
11
40.077500
21
155.645300
0
LINE
8
Layer 1
10
40.077500
20
155.645300
11
43.183378
21
153.992014
0
LINE
8
Layer 1
10
43.183378
20
153.992014
11
46.271122
21
152.803023
0
LINE
8
Layer 1
10
46.271122
20
152.803023
11
49.327999
21
152.076218
0
LINE
8
Layer 1
10
49.327999
20
152.076218
11
52.341275
21
151.809487
0
LINE
8
Layer 1
10
52.341275
20
151.809487
11
55.298217
21
152.000721
0
LINE
8
Layer 1
10
55.298217
20
152.000721
11
58.186091
21
152.647808
0
LINE
8
Layer 1
10
58.186091
20
152.647808
11
60.992163
21
153.748638
0
LINE
8
Layer 1
10
60.992163
20
153.748638
11
63.703700
21
155.301100
0
LINE
8
Layer 1
10
63.703700
20
155.301100
11
64.487525
21
155.799525
0
LINE
8
Layer 1
10
64.487525
20
155.799525
11
64.749416
21
155.689366
0
LINE
8
Layer 1
10
64.749416
20
155.689366
11
65.060900
21
155.205500
0
LINE
8
Layer 1
10
65.060900
20
155.205500
11
66.924138
21
152.447345
0
LINE
8
Layer 1
10
66.924138
20
152.447345
11
68.508652
21
150.378116
0
LINE
8
Layer 1
10
68.508652
20
150.378116
11
70.252275
21
148.340587
0
LINE
8
Layer 1
10
70.252275
20
148.340587
11
71.947888
21
146.703610
0
LINE
8
Layer 1
10
71.947888
20
146.703610
11
72.712967
21
146.150595
0
LINE
8
Layer 1
10
72.712967
20
146.150595
11
73.388375
21
145.836036
0
LINE
8
Layer 1
10
73.388375
20
145.836036
11
73.948222
21
145.806041
0
LINE
8
Layer 1
10
73.948222
20
145.806041
11
74.366618
21
146.106715
0
LINE
8
Layer 1
10
74.366618
20
146.106715
11
74.617674
21
146.784166
0
LINE
8
Layer 1
10
74.617674
20
146.784166
11
74.675500
21
147.884500
0
LINE
8
Layer 1
10
74.675500
20
147.884500
11
74.282758
21
154.298372
0
LINE
8
Layer 1
10
74.282758
20
154.298372
11
73.575212
21
160.712450
0
LINE
8
Layer 1
10
73.575212
20
160.712450
11
72.571961
21
167.120903
0
LINE
8
Layer 1
10
72.571961
20
167.120903
11
71.292100
21
173.517900
0
LINE
8
Layer 1
10
71.292100
20
173.517900
11
71.165138
21
174.265066
0
LINE
8
Layer 1
10
71.165138
20
174.265066
11
71.230325
21
174.715550
0
LINE
8
Layer 1
10
71.230325
20
174.715550
11
71.555800
21
174.901734
0
LINE
8
Layer 1
10
71.555800
20
174.901734
11
72.209700
21
174.856000
0
LINE
8
Layer 1
10
72.209700
20
174.856000
11
74.518203
21
174.521656
0
LINE
8
Layer 1
10
74.518203
20
174.521656
11
76.798525
21
174.362100
0
LINE
8
Layer 1
10
76.798525
20
174.362100
11
79.018284
21
174.397844
0
LINE
8
Layer 1
10
79.018284
20
174.397844
11
81.145100
21
174.649400
0
LINE
8
Layer 1
10
81.145100
20
174.649400
11
82.231798
21
174.921386
0
LINE
8
Layer 1
10
82.231798
20
174.921386
11
83.262015
21
175.335681
0
LINE
8
Layer 1
10
83.262015
20
175.335681
11
85.163043
21
176.551604
0
LINE
8
Layer 1
10
85.163043
20
176.551604
11
86.868258
21
178.217978
0
LINE
8
Layer 1
10
86.868258
20
178.217978
11
88.397734
21
180.255611
0
LINE
8
Layer 1
10
88.397734
20
180.255611
11
89.771548
21
182.585312
0
LINE
8
Layer 1
10
89.771548
20
182.585312
11
91.009771
21
185.127891
0
LINE
8
Layer 1
10
91.009771
20
185.127891
11
93.159750
21
190.534912
0
LINE
8
Layer 1
10
93.159750
20
190.534912
11
95.008266
21
195.843145
0
LINE
8
Layer 1
10
95.008266
20
195.843145
11
96.715916
21
200.419058
0
LINE
8
Layer 1
10
96.715916
20
200.419058
11
97.567102
21
202.234416
0
LINE
8
Layer 1
10
97.567102
20
202.234416
11
98.443295
21
203.629120
0
LINE
8
Layer 1
10
98.443295
20
203.629120
11
99.364569
21
204.523978
0
LINE
8
Layer 1
10
99.364569
20
204.523978
11
99.848386
21
204.759218
0
LINE
8
Layer 1
10
99.848386
20
204.759218
11
100.351000
21
204.839800
0
LINE
8
Layer 1
10
100.351000
20
204.839800
11
100.847210
21
204.764335
0
LINE
8
Layer 1
10
100.847210
20
204.764335
11
101.313166
21
204.544400
0
LINE
8
Layer 1
10
101.313166
20
204.544400
11
102.172460
21
203.709315
0
LINE
8
Layer 1
10
102.172460
20
203.709315
11
102.965173
21
202.410934
0
LINE
8
Layer 1
10
102.965173
20
202.410934
11
103.727598
21
200.725648
0
LINE
8
Layer 1
10
103.727598
20
200.725648
11
105.306753
21
196.499924
0
LINE
8
Layer 1
10
105.306753
20
196.499924
11
107.200262
21
191.643262
0
LINE
8
Layer 1
10
107.200262
20
191.643262
11
108.355631
21
189.169307
0
LINE
8
Layer 1
10
108.355631
20
189.169307
11
109.698464
21
186.766787
0
LINE
8
Layer 1
10
109.698464
20
186.766787
11
111.265055
21
184.512095
0
LINE
8
Layer 1
10
111.265055
20
184.512095
11
113.091695
21
182.481620
0
LINE
8
Layer 1
10
113.091695
20
182.481620
11
115.214678
21
180.751753
0
LINE
8
Layer 1
10
115.214678
20
180.751753
11
117.670295
21
179.398884
0
LINE
8
Layer 1
10
117.670295
20
179.398884
11
120.494838
21
178.499403
0
LINE
8
Layer 1
10
120.494838
20
178.499403
11
122.056798
21
178.243555
0
LINE
8
Layer 1
10
122.056798
20
178.243555
11
123.724600
21
178.129700
0
LINE
8
Layer 1
10
123.724600
20
178.129700
11
128.370175
21
177.900862
0
LINE
8
Layer 1
10
128.370175
20
177.900862
11
132.058600
21
177.634300
0
LINE
8
Layer 1
10
132.058600
20
177.634300
11
132.582864
21
177.585183
0
LINE
8
Layer 1
10
132.582864
20
177.585183
11
132.853037
21
177.453463
0
LINE
8
Layer 1
10
132.853037
20
177.453463
11
132.905317
21
177.161336
0
LINE
8
Layer 1
10
132.905317
20
177.161336
11
132.775900
21
176.631000
0
LINE
8
Layer 1
10
132.775900
20
176.631000
11
130.423856
21
168.490062
0
LINE
8
Layer 1
10
130.423856
20
168.490062
11
128.724650
21
161.415775
0
LINE
8
Layer 1
10
128.724650
20
161.415775
11
127.707044
21
155.461875
0
LINE
8
Layer 1
10
127.707044
20
155.461875
11
127.462829
21
152.921863
0
LINE
8
Layer 1
10
127.462829
20
152.921863
11
127.399800
21
150.682100
0
LINE
8
Layer 1
10
127.399800
20
150.682100
11
127.627816
21
149.590839
0
LINE
8
Layer 1
10
127.627816
20
149.590839
11
128.234750
21
148.969162
0
LINE
8
Layer 1
10
128.234750
20
148.969162
11
129.158934
21
148.869430
0
LINE
8
Layer 1
10
129.158934
20
148.869430
11
130.338700
21
149.344000
0
LINE
8
Layer 1
10
130.338700
20
149.344000
11
133.379864
21
151.405897
0
LINE
8
Layer 1
10
133.379864
20
151.405897
11
136.266162
21
153.791475
0
LINE
8
Layer 1
10
136.266162
20
153.791475
11
139.002255
21
156.468091
0
LINE
8
Layer 1
10
139.002255
20
156.468091
11
141.592800
21
159.403100
0
LINE
8
Layer 1
10
141.592800
20
159.403100
11
141.934406
21
159.771786
0
LINE
8
Layer 1
10
141.934406
20
159.771786
11
142.203600
21
159.882612
0
LINE
8
Layer 1
10
142.203600
20
159.882612
11
142.483969
21
159.717833
0
LINE
8
Layer 1
10
142.483969
20
159.717833
11
142.859100
21
159.259700
0
LINE
8
Layer 1
10
142.859100
20
159.259700
11
144.736516
21
157.198923
0
LINE
8
Layer 1
10
144.736516
20
157.198923
11
145.791879
21
156.371556
0
LINE
8
Layer 1
10
145.791879
20
156.371556
11
146.923495
21
155.679375
0
LINE
8
Layer 1
10
146.923495
20
155.679375
11
148.130227
21
155.122260
0
LINE
8
Layer 1
10
148.130227
20
155.122260
11
149.410937
21
154.700089
0
LINE
8
Layer 1
10
149.410937
20
154.700089
11
152.189737
21
154.260100
0
LINE
8
Layer 1
10
152.189737
20
154.260100
11
155.250796
21
154.358442
0
LINE
8
Layer 1
10
155.250796
20
154.358442
11
158.585011
21
154.994150
0
LINE
8
Layer 1
10
158.585011
20
154.994150
11
162.183279
21
156.166258
0
LINE
8
Layer 1
10
162.183279
20
156.166258
11
166.036500
21
157.873800
0
LINE
8
Layer 1
10
166.036500
20
157.873800
11
166.544195
21
158.093613
0
LINE
8
Layer 1
10
166.544195
20
158.093613
11
166.818912
21
158.093750
0
LINE
8
Layer 1
10
166.818912
20
158.093750
11
166.851773
21
157.810687
0
LINE
8
Layer 1
10
166.851773
20
157.810687
11
166.633900
21
157.180900
0
LINE
8
Layer 1
10
166.633900
20
157.180900
11
166.009469
21
155.498235
0
LINE
8
Layer 1
10
166.009469
20
155.498235
11
165.564930
21
153.851608
0
LINE
8
Layer 1
10
165.564930
20
153.851608
11
165.302535
21
152.247049
0
LINE
8
Layer 1
10
165.302535
20
152.247049
11
165.224537
21
150.690587
0
LINE
8
Layer 1
10
165.224537
20
150.690587
11
165.333192
21
149.188253
0
LINE
8
Layer 1
10
165.333192
20
149.188253
11
165.630752
21
147.746073
0
LINE
8
Layer 1
10
165.630752
20
147.746073
11
166.119470
21
146.370079
0
LINE
8
Layer 1
10
166.119470
20
146.370079
11
166.801600
21
145.066300
0
LINE
8
Layer 1
10
166.801600
20
145.066300
11
167.160575
21
144.189487
0
LINE
8
Layer 1
10
167.160575
20
144.189487
11
166.825500
21
143.489300
0
LINE
8
Layer 1
10
166.825500
20
143.489300
11
166.168205
21
142.374529
0
LINE
8
Layer 1
10
166.168205
20
142.374529
11
165.709575
21
141.226086
0
LINE
8
Layer 1
10
165.709575
20
141.226086
11
165.454420
21
140.053228
0
LINE
8
Layer 1
10
165.454420
20
140.053228
11
165.407550
21
138.865212
0
LINE
8
Layer 1
10
165.407550
20
138.865212
11
165.573773
21
137.671295
0
LINE
8
Layer 1
10
165.573773
20
137.671295
11
165.957900
21
136.480733
0
LINE
8
Layer 1
10
165.957900
20
136.480733
11
166.564739
21
135.302782
0
LINE
8
Layer 1
10
166.564739
20
135.302782
11
167.399100
21
134.146700
0
LINE
8
Layer 1
10
167.399100
20
134.146700
11
167.728802
21
133.658034
0
LINE
8
Layer 1
10
167.728802
20
133.658034
11
167.782437
21
133.267825
0
LINE
8
Layer 1
10
167.782437
20
133.267825
11
167.572730
21
132.886953
0
LINE
8
Layer 1
10
167.572730
20
132.886953
11
167.112400
21
132.426300
0
LINE
8
Layer 1
10
167.112400
20
132.426300
11
163.839876
21
129.206566
0
LINE
8
Layer 1
10
163.839876
20
129.206566
11
161.260581
21
126.136012
0
LINE
8
Layer 1
10
161.260581
20
126.136012
11
159.427996
21
123.245871
0
LINE
8
Layer 1
10
159.427996
20
123.245871
11
158.808432
21
121.878215
0
LINE
8
Layer 1
10
158.808432
20
121.878215
11
158.395600
21
120.567375
0
LINE
8
Layer 1
10
158.395600
20
120.567375
11
158.196185
21
119.317254
0
LINE
8
Layer 1
10
158.196185
20
119.317254
11
158.216873
21
118.131757
0
LINE
8
Layer 1
10
158.216873
20
118.131757
11
158.464347
21
117.014788
0
LINE
8
Layer 1
10
158.464347
20
117.014788
11
158.945294
21
115.970250
0
LINE
8
Layer 1
10
158.945294
20
115.970250
11
159.666397
21
115.002048
0
LINE
8
Layer 1
10
159.666397
20
115.002048
11
160.634343
21
114.114087
0
LINE
8
Layer 1
10
160.634343
20
114.114087
11
161.855816
21
113.310269
0
LINE
8
Layer 1
10
161.855816
20
113.310269
11
163.337500
21
112.594500
0
LINE
8
Layer 1
10
163.337500
20
112.594500
11
164.237425
21
112.146425
0
LINE
8
Layer 1
10
164.237425
20
112.146425
11
164.866600
21
111.065200
0
LINE
8
Layer 1
10
164.866600
20
111.065200
11
165.447897
21
109.941079
0
LINE
8
Layer 1
10
165.447897
20
109.941079
11
166.213642
21
108.919244
0
LINE
8
Layer 1
10
166.213642
20
108.919244
11
167.152363
21
107.999399
0
LINE
8
Layer 1
10
167.152363
20
107.999399
11
168.252587
21
107.181250
0
LINE
8
Layer 1
10
168.252587
20
107.181250
11
169.502845
21
106.464501
0
LINE
8
Layer 1
10
169.502845
20
106.464501
11
170.891664
21
105.848856
0
LINE
8
Layer 1
10
170.891664
20
105.848856
11
174.039100
21
104.919700
0
LINE
8
Layer 1
10
174.039100
20
104.919700
11
175.114886
21
104.721137
0
LINE
8
Layer 1
10
175.114886
20
104.721137
11
175.806887
21
104.486725
0
LINE
8
Layer 1
10
175.806887
20
104.486725
11
175.964927
21
104.278134
0
LINE
8
Layer 1
10
175.964927
20
104.278134
11
175.974170
21
103.967050
0
LINE
8
Layer 1
10
175.974170
20
103.967050
11
175.475800
21
102.912700
0
LINE
8
Layer 1
10
175.475800
20
102.912700
11
174.835688
21
102.076766
0
LINE
8
Layer 1
10
174.835688
20
102.076766
11
173.996903
21
101.283878
0
LINE
8
Layer 1
10
173.996903
20
101.283878
11
171.764348
21
99.801603
0
LINE
8
Layer 1
10
171.764348
20
99.801603
11
168.860204
21
98.414602
0
LINE
8
Layer 1
10
168.860204
20
98.414602
11
165.366537
21
97.071600
0
LINE
8
Layer 1
10
165.366537
20
97.071600
11
156.938908
21
94.312497
0
LINE
8
Layer 1
10
156.938908
20
94.312497
11
147.138000
21
91.114100
0
LINE
8
Layer 1
10
147.138000
20
91.114100
11
146.107847
21
90.564984
0
LINE
8
Layer 1
10
146.107847
20
90.564984
11
145.607775
21
89.813575
0
LINE
8
Layer 1
10
145.607775
20
89.813575
11
145.577701
21
89.368965
0
LINE
8
Layer 1
10
145.577701
20
89.368965
11
145.705566
21
88.882128
0
LINE
8
Layer 1
10
145.705566
20
88.882128
11
146.469000
21
87.792900
0
LINE
8
Layer 1
10
146.469000
20
87.792900
11
147.724244
21
86.722600
0
LINE
8
Layer 1
10
147.724244
20
86.722600
11
149.135000
21
85.827575
0
LINE
8
Layer 1
10
149.135000
20
85.827575
11
152.108200
21
84.125200
0
LINE
8
Layer 1
10
152.108200
20
84.125200
11
152.539125
21
83.743811
0
LINE
8
Layer 1
10
152.539125
20
83.743811
11
152.833811
21
83.267764
0
LINE
8
Layer 1
10
152.833811
20
83.267764
11
153.038837
21
82.199662
0
LINE
8
Layer 1
10
153.038837
20
82.199662
11
152.772020
21
81.256830
0
LINE
8
Layer 1
10
152.772020
20
81.256830
11
152.476902
21
80.937369
0
LINE
8
Layer 1
10
152.476902
20
80.937369
11
152.082100
21
80.775200
0
LINE
8
Layer 1
10
152.082100
20
80.775200
11
149.223880
21
80.405644
0
LINE
8
Layer 1
10
149.223880
20
80.405644
11
146.480880
21
80.207345
0
LINE
8
Layer 1
10
146.480880
20
80.207345
11
143.841616
21
80.169533
0
LINE
8
Layer 1
10
143.841616
20
80.169533
11
141.294608
21
80.281437
0
LINE
8
Layer 1
10
141.294608
20
80.281437
11
136.431429
21
80.911318
0
LINE
8
Layer 1
10
136.431429
20
80.911318
11
131.799487
21
82.010825
0
LINE
8
Layer 1
10
131.799487
20
82.010825
11
127.306929
21
83.493798
0
LINE
8
Layer 1
10
127.306929
20
83.493798
11
122.861898
21
85.274075
0
LINE
8
Layer 1
10
122.861898
20
85.274075
11
113.747000
21
89.381900
0
LINE
8
Layer 1
10
113.747000
20
89.381900
11
113.747000
21
89.381900
 0 
ENDSEC
 0 
EOF