999
"DXF R12 Output" (www.mydxf.blogspot.com)
 0 
SECTION
 2 
HEADER
 9 
$ACADVER
 1 
AC1009
 9 
$EXTMIN
 10 
 0 
 20 
 0 
 9 
$EXTMAX
 10 
 8.5 
 20 
 11 
 0 
ENDSEC
 0 
SECTION
 2 
ENTITIES
0
LINE
8
Layer 1
10
0.000000
20
270.933000
11
270.933000
21
270.933000
0
LINE
8
Layer 1
10
270.933000
20
270.933000
11
270.933000
21
0.000008
0
LINE
8
Layer 1
10
270.933000
20
0.000008
11
0.000000
21
0.000008
0
LINE
8
Layer 1
10
0.000000
20
0.000008
11
0.000000
21
270.933000
0
LINE
8
Layer 1
10
0.000000
20
270.933000
11
0.000000
21
270.933000
0
LINE
8
Layer 1
10
132.358000
20
266.402000
11
133.484875
21
266.478750
0
LINE
8
Layer 1
10
133.484875
20
266.478750
11
134.611000
21
266.407000
0
LINE
8
Layer 1
10
134.611000
20
266.407000
11
135.800781
21
266.135484
0
LINE
8
Layer 1
10
135.800781
20
266.135484
11
136.956250
21
265.716875
0
LINE
8
Layer 1
10
136.956250
20
265.716875
11
139.162000
21
264.645000
0
LINE
8
Layer 1
10
139.162000
20
264.645000
11
140.758850
21
263.704324
0
LINE
8
Layer 1
10
140.758850
20
263.704324
11
142.284109
21
262.616531
0
LINE
8
Layer 1
10
142.284109
20
262.616531
11
145.098625
21
260.077500
0
LINE
8
Layer 1
10
145.098625
20
260.077500
11
147.563078
21
257.183719
0
LINE
8
Layer 1
10
147.563078
20
257.183719
11
149.635000
21
254.091000
0
LINE
8
Layer 1
10
149.635000
20
254.091000
11
151.815500
21
250.263125
0
LINE
8
Layer 1
10
151.815500
20
250.263125
11
154.173000
21
246.547000
0
LINE
8
Layer 1
10
154.173000
20
246.547000
11
156.178000
21
247.174000
0
LINE
8
Layer 1
10
156.178000
20
247.174000
11
158.540438
21
247.579813
0
LINE
8
Layer 1
10
158.540438
20
247.579813
11
160.889000
21
247.534500
0
LINE
8
Layer 1
10
160.889000
20
247.534500
11
163.176063
21
247.020438
0
LINE
8
Layer 1
10
163.176063
20
247.020438
11
165.354000
21
246.020000
0
LINE
8
Layer 1
10
165.354000
20
246.020000
11
166.804496
21
245.009832
0
LINE
8
Layer 1
10
166.804496
20
245.009832
11
168.062262
21
243.830283
0
LINE
8
Layer 1
10
168.062262
20
243.830283
11
169.139717
21
242.499846
0
LINE
8
Layer 1
10
169.139717
20
242.499846
11
170.049281
21
241.037016
0
LINE
8
Layer 1
10
170.049281
20
241.037016
11
170.803373
21
239.460284
0
LINE
8
Layer 1
10
170.803373
20
239.460284
11
171.414410
21
237.788146
0
LINE
8
Layer 1
10
171.414410
20
237.788146
11
172.257000
21
234.231625
0
LINE
8
Layer 1
10
172.257000
20
234.231625
11
172.676402
21
230.515400
0
LINE
8
Layer 1
10
172.676402
20
230.515400
11
172.771969
21
226.787422
0
LINE
8
Layer 1
10
172.771969
20
226.787422
11
172.643051
21
223.195639
0
LINE
8
Layer 1
10
172.643051
20
223.195639
11
172.389000
21
219.888000
0
LINE
8
Layer 1
10
172.389000
20
219.888000
11
171.906500
21
215.257750
0
LINE
8
Layer 1
10
171.906500
20
215.257750
11
171.829313
21
212.828625
0
LINE
8
Layer 1
10
171.829313
20
212.828625
11
172.096000
21
210.755000
0
LINE
8
Layer 1
10
172.096000
20
210.755000
11
172.372125
21
210.072375
0
LINE
8
Layer 1
10
172.372125
20
210.072375
11
172.913000
21
209.587000
0
LINE
8
Layer 1
10
172.913000
20
209.587000
11
173.824875
21
209.633125
0
LINE
8
Layer 1
10
173.824875
20
209.633125
11
174.670000
21
210.007000
0
LINE
8
Layer 1
10
174.670000
20
210.007000
11
175.850000
21
210.901625
0
LINE
8
Layer 1
10
175.850000
20
210.901625
11
176.931000
21
211.923000
0
LINE
8
Layer 1
10
176.931000
20
211.923000
11
179.297000
21
214.088750
0
LINE
8
Layer 1
10
179.297000
20
214.088750
11
181.843000
21
216.031000
0
LINE
8
Layer 1
10
181.843000
20
216.031000
11
184.004141
21
217.097172
0
LINE
8
Layer 1
10
184.004141
20
217.097172
11
186.367875
21
217.718875
0
LINE
8
Layer 1
10
186.367875
20
217.718875
11
188.809422
21
217.885141
0
LINE
8
Layer 1
10
188.809422
20
217.885141
11
191.204000
21
217.585000
0
LINE
8
Layer 1
10
191.204000
20
217.585000
11
192.851562
21
217.024203
0
LINE
8
Layer 1
10
192.851562
20
217.024203
11
194.313500
21
216.159375
0
LINE
8
Layer 1
10
194.313500
20
216.159375
11
195.575188
21
215.017609
0
LINE
8
Layer 1
10
195.575188
20
215.017609
11
196.622000
21
213.626000
0
LINE
8
Layer 1
10
196.622000
20
213.626000
11
197.347207
21
212.209280
0
LINE
8
Layer 1
10
197.347207
20
212.209280
11
197.867781
21
210.659189
0
LINE
8
Layer 1
10
197.867781
20
210.659189
11
198.199777
21
208.994962
0
LINE
8
Layer 1
10
198.199777
20
208.994962
11
198.359250
21
207.235828
0
LINE
8
Layer 1
10
198.359250
20
207.235828
11
198.224844
21
203.509771
0
LINE
8
Layer 1
10
198.224844
20
203.509771
11
197.593000
21
199.634875
0
LINE
8
Layer 1
10
197.593000
20
199.634875
11
196.592156
21
195.764994
0
LINE
8
Layer 1
10
196.592156
20
195.764994
11
195.350750
21
192.053984
0
LINE
8
Layer 1
10
195.350750
20
192.053984
11
193.997219
21
188.655701
0
LINE
8
Layer 1
10
193.997219
20
188.655701
11
192.660000
21
185.724000
0
LINE
8
Layer 1
10
192.660000
20
185.724000
11
188.737250
21
178.327500
0
LINE
8
Layer 1
10
188.737250
20
178.327500
11
186.964969
21
174.528281
0
LINE
8
Layer 1
10
186.964969
20
174.528281
11
186.251527
21
172.570699
0
LINE
8
Layer 1
10
186.251527
20
172.570699
11
185.701000
21
170.562000
0
LINE
8
Layer 1
10
185.701000
20
170.562000
11
185.303250
21
168.653375
0
LINE
8
Layer 1
10
185.303250
20
168.653375
11
185.267594
21
167.645297
0
LINE
8
Layer 1
10
185.267594
20
167.645297
11
185.522000
21
166.807000
0
LINE
8
Layer 1
10
185.522000
20
166.807000
11
185.952625
21
166.680156
0
LINE
8
Layer 1
10
185.952625
20
166.680156
11
186.338250
21
166.705750
0
LINE
8
Layer 1
10
186.338250
20
166.705750
11
187.126000
21
167.050000
0
LINE
8
Layer 1
10
187.126000
20
167.050000
11
189.688625
21
168.677625
0
LINE
8
Layer 1
10
189.688625
20
168.677625
11
192.180000
21
170.435000
0
LINE
8
Layer 1
10
192.180000
20
170.435000
11
195.951844
21
172.847266
0
LINE
8
Layer 1
10
195.951844
20
172.847266
11
199.884000
21
175.125375
0
LINE
8
Layer 1
10
199.884000
20
175.125375
11
203.960156
21
177.110047
0
LINE
8
Layer 1
10
203.960156
20
177.110047
11
208.164000
21
178.642000
0
LINE
8
Layer 1
10
208.164000
20
178.642000
11
211.390875
21
179.396094
0
LINE
8
Layer 1
10
211.390875
20
179.396094
11
214.776750
21
179.715750
0
LINE
8
Layer 1
10
214.776750
20
179.715750
11
216.467086
21
179.650730
0
LINE
8
Layer 1
10
216.467086
20
179.650730
11
218.122500
21
179.402781
0
LINE
8
Layer 1
10
218.122500
20
179.402781
11
219.718102
21
178.947129
0
LINE
8
Layer 1
10
219.718102
20
178.947129
11
221.229000
21
178.259000
0
LINE
8
Layer 1
10
221.229000
20
178.259000
11
222.934359
21
177.080594
0
LINE
8
Layer 1
10
222.934359
20
177.080594
11
224.302125
21
175.639500
0
LINE
8
Layer 1
10
224.302125
20
175.639500
11
225.341578
21
173.942656
0
LINE
8
Layer 1
10
225.341578
20
173.942656
11
226.062000
21
171.997000
0
LINE
8
Layer 1
10
226.062000
20
171.997000
11
226.547000
21
169.125750
0
LINE
8
Layer 1
10
226.547000
20
169.125750
11
226.642000
21
166.211000
0
LINE
8
Layer 1
10
226.642000
20
166.211000
11
226.546637
21
163.638563
0
LINE
8
Layer 1
10
226.546637
20
163.638563
11
226.277719
21
161.155000
0
LINE
8
Layer 1
10
226.277719
20
161.155000
11
225.839629
21
158.746062
0
LINE
8
Layer 1
10
225.839629
20
158.746062
11
225.236750
21
156.397500
0
LINE
8
Layer 1
10
225.236750
20
156.397500
11
224.473465
21
154.095062
0
LINE
8
Layer 1
10
224.473465
20
154.095062
11
223.554156
21
151.824500
0
LINE
8
Layer 1
10
223.554156
20
151.824500
11
221.265000
21
147.322000
0
LINE
8
Layer 1
10
221.265000
20
147.322000
11
222.500984
21
146.947437
0
LINE
8
Layer 1
10
222.500984
20
146.947437
11
223.640875
21
146.416500
0
LINE
8
Layer 1
10
223.640875
20
146.416500
11
224.675578
21
145.704813
0
LINE
8
Layer 1
10
224.675578
20
145.704813
11
225.596000
21
144.788000
0
LINE
8
Layer 1
10
225.596000
20
144.788000
11
226.700281
21
143.071484
0
LINE
8
Layer 1
10
226.700281
20
143.071484
11
227.386250
21
141.153875
0
LINE
8
Layer 1
10
227.386250
20
141.153875
11
227.691594
21
139.128828
0
LINE
8
Layer 1
10
227.691594
20
139.128828
11
227.654000
21
137.090000
0
LINE
8
Layer 1
10
227.654000
20
137.090000
11
227.265734
21
135.004672
0
LINE
8
Layer 1
10
227.265734
20
135.004672
11
226.570625
21
132.968375
0
LINE
8
Layer 1
10
226.570625
20
132.968375
11
225.658953
21
131.010641
0
LINE
8
Layer 1
10
225.658953
20
131.010641
11
224.621000
21
129.161000
0
LINE
8
Layer 1
10
224.621000
20
129.161000
11
222.789271
21
126.374779
0
LINE
8
Layer 1
10
222.789271
20
126.374779
11
220.847234
21
123.903359
0
LINE
8
Layer 1
10
220.847234
20
123.903359
11
218.792111
21
121.683354
0
LINE
8
Layer 1
10
218.792111
20
121.683354
11
216.621125
21
119.651375
0
LINE
8
Layer 1
10
216.621125
20
119.651375
11
211.920453
21
115.897953
0
LINE
8
Layer 1
10
211.920453
20
115.897953
11
206.723000
21
112.136000
0
LINE
8
Layer 1
10
206.723000
20
112.136000
11
204.314500
21
110.409375
0
LINE
8
Layer 1
10
204.314500
20
110.409375
11
201.966000
21
108.607000
0
LINE
8
Layer 1
10
201.966000
20
108.607000
11
204.903000
21
108.521000
0
LINE
8
Layer 1
10
204.903000
20
108.521000
11
207.191641
21
108.089594
0
LINE
8
Layer 1
10
207.191641
20
108.089594
11
209.298125
21
107.296500
0
LINE
8
Layer 1
10
209.298125
20
107.296500
11
211.186547
21
106.092406
0
LINE
8
Layer 1
10
211.186547
20
106.092406
11
212.821000
21
104.428000
0
LINE
8
Layer 1
10
212.821000
20
104.428000
11
213.923000
21
102.620656
0
LINE
8
Layer 1
10
213.923000
20
102.620656
11
214.541250
21
100.701975
0
LINE
8
Layer 1
10
214.541250
20
100.701975
11
214.748125
21
98.682231
0
LINE
8
Layer 1
10
214.748125
20
98.682231
11
214.616000
21
96.571700
0
LINE
8
Layer 1
10
214.616000
20
96.571700
11
214.194635
21
94.414178
0
LINE
8
Layer 1
10
214.194635
20
94.414178
11
213.509709
21
92.313779
0
LINE
8
Layer 1
10
213.509709
20
92.313779
11
212.584533
21
90.274676
0
LINE
8
Layer 1
10
212.584533
20
90.274676
11
211.442422
21
88.301039
0
LINE
8
Layer 1
10
211.442422
20
88.301039
11
210.106687
21
86.397040
0
LINE
8
Layer 1
10
210.106687
20
86.397040
11
208.600643
21
84.566851
0
LINE
8
Layer 1
10
208.600643
20
84.566851
11
206.947601
21
82.814643
0
LINE
8
Layer 1
10
206.947601
20
82.814643
11
205.170875
21
81.144588
0
LINE
8
Layer 1
10
205.170875
20
81.144588
11
201.339623
21
78.067619
0
LINE
8
Layer 1
10
201.339623
20
78.067619
11
197.293391
21
75.369317
0
LINE
8
Layer 1
10
197.293391
20
75.369317
11
193.218682
21
73.083054
0
LINE
8
Layer 1
10
193.218682
20
73.083054
11
189.302000
21
71.242200
0
LINE
8
Layer 1
10
189.302000
20
71.242200
11
184.430016
21
69.377323
0
LINE
8
Layer 1
10
184.430016
20
69.377323
11
179.623375
21
67.638137
0
LINE
8
Layer 1
10
179.623375
20
67.638137
11
177.268143
21
66.675824
0
LINE
8
Layer 1
10
177.268143
20
66.675824
11
174.957547
21
65.577108
0
LINE
8
Layer 1
10
174.957547
20
65.577108
11
172.701021
21
64.286047
0
LINE
8
Layer 1
10
172.701021
20
64.286047
11
170.508000
21
62.746700
0
LINE
8
Layer 1
10
170.508000
20
62.746700
11
172.282125
21
63.009450
0
LINE
8
Layer 1
10
172.282125
20
63.009450
11
174.075000
21
62.995600
0
LINE
8
Layer 1
10
174.075000
20
62.995600
11
175.307656
21
62.787789
0
LINE
8
Layer 1
10
175.307656
20
62.787789
11
176.472250
21
62.383038
0
LINE
8
Layer 1
10
176.472250
20
62.383038
11
177.523969
21
61.754542
0
LINE
8
Layer 1
10
177.523969
20
61.754542
11
178.418000
21
60.875500
0
LINE
8
Layer 1
10
178.418000
20
60.875500
11
178.575000
21
60.663300
0
LINE
8
Layer 1
10
178.575000
20
60.663300
11
178.721000
21
60.443700
0
LINE
8
Layer 1
10
178.721000
20
60.443700
11
178.855000
21
60.217000
0
LINE
8
Layer 1
10
178.855000
20
60.217000
11
178.978000
21
59.983900
0
LINE
8
Layer 1
10
178.978000
20
59.983900
11
179.090000
21
59.744700
0
LINE
8
Layer 1
10
179.090000
20
59.744700
11
179.189000
21
59.500500
0
LINE
8
Layer 1
10
179.189000
20
59.500500
11
179.276000
21
59.251500
0
LINE
8
Layer 1
10
179.276000
20
59.251500
11
179.350000
21
58.998600
0
LINE
8
Layer 1
10
179.350000
20
58.998600
11
179.412000
21
58.742200
0
LINE
8
Layer 1
10
179.412000
20
58.742200
11
179.461000
21
58.483200
0
LINE
8
Layer 1
10
179.461000
20
58.483200
11
179.497000
21
58.221800
0
LINE
8
Layer 1
10
179.497000
20
58.221800
11
179.520000
21
57.959000
0
LINE
8
Layer 1
10
179.520000
20
57.959000
11
179.529000
21
57.695500
0
LINE
8
Layer 1
10
179.529000
20
57.695500
11
179.526000
21
57.432000
0
LINE
8
Layer 1
10
179.526000
20
57.432000
11
179.509000
21
57.168700
0
LINE
8
Layer 1
10
179.509000
20
57.168700
11
179.479000
21
56.906800
0
LINE
8
Layer 1
10
179.479000
20
56.906800
11
179.134980
21
55.402784
0
LINE
8
Layer 1
10
179.134980
20
55.402784
11
178.531813
21
53.944371
0
LINE
8
Layer 1
10
178.531813
20
53.944371
11
177.697457
21
52.532426
0
LINE
8
Layer 1
10
177.697457
20
52.532426
11
176.659875
21
51.167809
0
LINE
8
Layer 1
10
176.659875
20
51.167809
11
174.086875
21
48.584011
0
LINE
8
Layer 1
10
174.086875
20
48.584011
11
171.036500
21
46.199875
0
LINE
8
Layer 1
10
171.036500
20
46.199875
11
167.732438
21
44.022298
0
LINE
8
Layer 1
10
167.732438
20
44.022298
11
164.398375
21
42.058178
0
LINE
8
Layer 1
10
164.398375
20
42.058178
11
158.535000
21
38.797900
0
LINE
8
Layer 1
10
158.535000
20
38.797900
11
155.328500
21
36.845325
0
LINE
8
Layer 1
10
155.328500
20
36.845325
11
152.247000
21
34.700600
0
LINE
8
Layer 1
10
152.247000
20
34.700600
11
150.074430
21
32.916335
0
LINE
8
Layer 1
10
150.074430
20
32.916335
11
148.096438
21
30.995875
0
LINE
8
Layer 1
10
148.096438
20
30.995875
11
146.324227
21
28.937696
0
LINE
8
Layer 1
10
146.324227
20
28.937696
11
144.769000
21
26.740275
0
LINE
8
Layer 1
10
144.769000
20
26.740275
11
143.441961
21
24.402088
0
LINE
8
Layer 1
10
143.441961
20
24.402088
11
142.354312
21
21.921613
0
LINE
8
Layer 1
10
142.354312
20
21.921613
11
141.517258
21
19.297324
0
LINE
8
Layer 1
10
141.517258
20
19.297324
11
140.942000
21
16.527700
0
LINE
8
Layer 1
10
140.942000
20
16.527700
11
140.713750
21
13.784175
0
LINE
8
Layer 1
10
140.713750
20
13.784175
11
140.505000
21
11.038400
0
LINE
8
Layer 1
10
140.505000
20
11.038400
11
140.480000
21
10.875700
0
LINE
8
Layer 1
10
140.480000
20
10.875700
11
139.618625
21
8.543958
0
LINE
8
Layer 1
10
139.618625
20
8.543958
11
138.987828
21
7.487141
0
LINE
8
Layer 1
10
138.987828
20
7.487141
11
138.200000
21
6.502930
0
LINE
8
Layer 1
10
138.200000
20
6.502930
11
137.242328
21
5.604067
0
LINE
8
Layer 1
10
137.242328
20
5.604067
11
136.116375
21
4.832551
0
LINE
8
Layer 1
10
136.116375
20
4.832551
11
134.879984
21
4.291122
0
LINE
8
Layer 1
10
134.879984
20
4.291122
11
133.591000
21
4.082520
0
LINE
8
Layer 1
10
133.591000
20
4.082520
11
132.830453
21
4.162475
0
LINE
8
Layer 1
10
132.830453
20
4.162475
11
132.107125
21
4.398699
0
LINE
8
Layer 1
10
132.107125
20
4.398699
11
130.861000
21
5.270500
0
LINE
8
Layer 1
10
130.861000
20
5.270500
11
130.369682
21
5.909093
0
LINE
8
Layer 1
10
130.369682
20
5.909093
11
129.998096
21
6.670216
0
LINE
8
Layer 1
10
129.998096
20
6.670216
11
129.566078
21
8.497248
0
LINE
8
Layer 1
10
129.566078
20
8.497248
11
129.468865
21
10.625988
0
LINE
8
Layer 1
10
129.468865
20
10.625988
11
129.610375
21
12.930826
0
LINE
8
Layer 1
10
129.610375
20
12.930826
11
130.225234
21
17.566366
0
LINE
8
Layer 1
10
130.225234
20
17.566366
11
130.642000
21
21.399000
0
LINE
8
Layer 1
10
130.642000
20
21.399000
11
130.428609
21
22.945325
0
LINE
8
Layer 1
10
130.428609
20
22.945325
11
129.823625
21
24.413725
0
LINE
8
Layer 1
10
129.823625
20
24.413725
11
128.974328
21
25.783912
0
LINE
8
Layer 1
10
128.974328
20
25.783912
11
128.028000
21
27.035600
0
LINE
8
Layer 1
10
128.028000
20
27.035600
11
125.125293
21
30.242117
0
LINE
8
Layer 1
10
125.125293
20
30.242117
11
121.970844
21
33.002036
0
LINE
8
Layer 1
10
121.970844
20
33.002036
11
118.611785
21
35.410896
0
LINE
8
Layer 1
10
118.611785
20
35.410896
11
115.095250
21
37.564237
0
LINE
8
Layer 1
10
115.095250
20
37.564237
11
107.778281
21
41.486520
0
LINE
8
Layer 1
10
107.778281
20
41.486520
11
104.072113
21
43.446541
0
LINE
8
Layer 1
10
104.072113
20
43.446541
11
100.397000
21
45.533200
0
LINE
8
Layer 1
10
100.397000
20
45.533200
11
97.715667
21
47.214989
0
LINE
8
Layer 1
10
97.715667
20
47.214989
11
95.117687
21
49.036888
0
LINE
8
Layer 1
10
95.117687
20
49.036888
11
92.649814
21
51.025492
0
LINE
8
Layer 1
10
92.649814
20
51.025492
11
90.358800
21
53.207400
0
LINE
8
Layer 1
10
90.358800
20
53.207400
11
88.199638
21
55.723850
0
LINE
8
Layer 1
10
88.199638
20
55.723850
11
86.299375
21
58.620250
0
LINE
8
Layer 1
10
86.299375
20
58.620250
11
85.543632
21
60.172213
0
LINE
8
Layer 1
10
85.543632
20
60.172213
11
84.969375
21
61.772700
0
LINE
8
Layer 1
10
84.969375
20
61.772700
11
84.615524
21
63.406225
0
LINE
8
Layer 1
10
84.615524
20
63.406225
11
84.521000
21
65.057300
0
LINE
8
Layer 1
10
84.521000
20
65.057300
11
84.678506
21
66.439222
0
LINE
8
Layer 1
10
84.678506
20
66.439222
11
85.076950
21
67.761650
0
LINE
8
Layer 1
10
85.076950
20
67.761650
11
85.727394
21
68.973903
0
LINE
8
Layer 1
10
85.727394
20
68.973903
11
86.640900
21
70.025300
0
LINE
8
Layer 1
10
86.640900
20
70.025300
11
87.807915
21
70.897539
0
LINE
8
Layer 1
10
87.807915
20
70.897539
11
89.117369
21
71.559131
0
LINE
8
Layer 1
10
89.117369
20
71.559131
11
90.533688
21
72.035577
0
LINE
8
Layer 1
10
90.533688
20
72.035577
11
92.021300
21
72.352375
0
LINE
8
Layer 1
10
92.021300
20
72.352375
11
95.068106
21
72.609031
0
LINE
8
Layer 1
10
95.068106
20
72.609031
11
97.973200
21
72.533100
0
LINE
8
Layer 1
10
97.973200
20
72.533100
11
96.604363
21
74.027717
0
LINE
8
Layer 1
10
96.604363
20
74.027717
11
95.020764
21
75.331708
0
LINE
8
Layer 1
10
95.020764
20
75.331708
11
93.270087
21
76.472286
0
LINE
8
Layer 1
10
93.270087
20
76.472286
11
91.400013
21
77.476663
0
LINE
8
Layer 1
10
91.400013
20
77.476663
11
87.492405
21
79.185661
0
LINE
8
Layer 1
10
87.492405
20
79.185661
11
83.679400
21
80.676400
0
LINE
8
Layer 1
10
83.679400
20
80.676400
11
77.964829
21
83.061429
0
LINE
8
Layer 1
10
77.964829
20
83.061429
11
72.512331
21
85.614166
0
LINE
8
Layer 1
10
72.512331
20
85.614166
11
67.357105
21
88.425994
0
LINE
8
Layer 1
10
67.357105
20
88.425994
11
62.534350
21
91.588300
0
LINE
8
Layer 1
10
62.534350
20
91.588300
11
60.258648
21
93.329440
0
LINE
8
Layer 1
10
60.258648
20
93.329440
11
58.079263
21
95.192468
0
LINE
8
Layer 1
10
58.079263
20
95.192468
11
56.000595
21
97.188809
0
LINE
8
Layer 1
10
56.000595
20
97.188809
11
54.027044
21
99.329884
0
LINE
8
Layer 1
10
54.027044
20
99.329884
11
52.163009
21
101.627118
0
LINE
8
Layer 1
10
52.163009
20
101.627118
11
50.412890
21
104.091933
0
LINE
8
Layer 1
10
50.412890
20
104.091933
11
48.781087
21
106.735753
0
LINE
8
Layer 1
10
48.781087
20
106.735753
11
47.272000
21
109.570000
0
LINE
8
Layer 1
10
47.272000
20
109.570000
11
45.445656
21
113.717281
0
LINE
8
Layer 1
10
45.445656
20
113.717281
11
44.612690
21
116.054465
0
LINE
8
Layer 1
10
44.612690
20
116.054465
11
43.917400
21
118.479750
0
LINE
8
Layer 1
10
43.917400
20
118.479750
11
43.422941
21
120.927441
0
LINE
8
Layer 1
10
43.422941
20
120.927441
11
43.192469
21
123.331844
0
LINE
8
Layer 1
10
43.192469
20
123.331844
11
43.289137
21
125.627262
0
LINE
8
Layer 1
10
43.289137
20
125.627262
11
43.776100
21
127.748000
0
LINE
8
Layer 1
10
43.776100
20
127.748000
11
44.693892
21
129.603203
0
LINE
8
Layer 1
10
44.693892
20
129.603203
11
45.960912
21
131.078625
0
LINE
8
Layer 1
10
45.960912
20
131.078625
11
47.524502
21
132.266984
0
LINE
8
Layer 1
10
47.524502
20
132.266984
11
49.332000
21
133.261000
0
LINE
8
Layer 1
10
49.332000
20
133.261000
11
48.662400
21
134.635000
0
LINE
8
Layer 1
10
48.662400
20
134.635000
11
47.335867
21
137.688812
0
LINE
8
Layer 1
10
47.335867
20
137.688812
11
46.125966
21
141.032687
0
LINE
8
Layer 1
10
46.125966
20
141.032687
11
45.097082
21
144.578031
0
LINE
8
Layer 1
10
45.097082
20
144.578031
11
44.313600
21
148.236250
0
LINE
8
Layer 1
10
44.313600
20
148.236250
11
43.839906
21
151.918750
0
LINE
8
Layer 1
10
43.839906
20
151.918750
11
43.740384
21
155.536937
0
LINE
8
Layer 1
10
43.740384
20
155.536937
11
44.079421
21
159.002219
0
LINE
8
Layer 1
10
44.079421
20
159.002219
11
44.433518
21
160.649834
0
LINE
8
Layer 1
10
44.433518
20
160.649834
11
44.921400
21
162.226000
0
LINE
8
Layer 1
10
44.921400
20
162.226000
11
45.897427
21
164.337875
0
LINE
8
Layer 1
10
45.897427
20
164.337875
11
47.208638
21
166.179000
0
LINE
8
Layer 1
10
47.208638
20
166.179000
11
48.862205
21
167.712625
0
LINE
8
Layer 1
10
48.862205
20
167.712625
11
50.865300
21
168.902000
0
LINE
8
Layer 1
10
50.865300
20
168.902000
11
52.425719
21
169.504965
0
LINE
8
Layer 1
10
52.425719
20
169.504965
11
54.038932
21
169.912766
0
LINE
8
Layer 1
10
54.038932
20
169.912766
11
55.695578
21
170.139887
0
LINE
8
Layer 1
10
55.695578
20
170.139887
11
57.386291
21
170.200812
0
LINE
8
Layer 1
10
57.386291
20
170.200812
11
60.832466
21
169.882016
0
LINE
8
Layer 1
10
60.832466
20
169.882016
11
64.302550
21
169.072250
0
LINE
8
Layer 1
10
64.302550
20
169.072250
11
67.721634
21
167.887391
0
LINE
8
Layer 1
10
67.721634
20
167.887391
11
71.014809
21
166.443312
0
LINE
8
Layer 1
10
71.014809
20
166.443312
11
74.107168
21
164.855891
0
LINE
8
Layer 1
10
74.107168
20
164.855891
11
76.923800
21
163.241000
0
LINE
8
Layer 1
10
76.923800
20
163.241000
11
80.670263
21
160.866500
0
LINE
8
Layer 1
10
80.670263
20
160.866500
11
82.665477
21
159.713281
0
LINE
8
Layer 1
10
82.665477
20
159.713281
11
84.539800
21
158.885000
0
LINE
8
Layer 1
10
84.539800
20
158.885000
11
85.174138
21
158.743750
0
LINE
8
Layer 1
10
85.174138
20
158.743750
11
85.789200
21
158.895000
0
LINE
8
Layer 1
10
85.789200
20
158.895000
11
86.175862
21
159.367125
0
LINE
8
Layer 1
10
86.175862
20
159.367125
11
86.398800
21
159.942000
0
LINE
8
Layer 1
10
86.398800
20
159.942000
11
86.520120
21
160.726525
0
LINE
8
Layer 1
10
86.520120
20
160.726525
11
86.471967
21
161.599465
0
LINE
8
Layer 1
10
86.471967
20
161.599465
11
85.941784
21
163.555781
0
LINE
8
Layer 1
10
85.941784
20
163.555781
11
84.957341
21
165.701332
0
LINE
8
Layer 1
10
84.957341
20
165.701332
11
83.667725
21
167.926500
0
LINE
8
Layer 1
10
83.667725
20
167.926500
11
80.769328
21
172.177219
0
LINE
8
Layer 1
10
80.769328
20
172.177219
11
78.439300
21
175.431000
0
LINE
8
Layer 1
10
78.439300
20
175.431000
11
76.402062
21
178.690000
0
LINE
8
Layer 1
10
76.402062
20
178.690000
11
74.520600
21
182.042000
0
LINE
8
Layer 1
10
74.520600
20
182.042000
11
73.153424
21
184.783117
0
LINE
8
Layer 1
10
73.153424
20
184.783117
11
71.961989
21
187.642313
0
LINE
8
Layer 1
10
71.961989
20
187.642313
11
70.985581
21
190.593477
0
LINE
8
Layer 1
10
70.985581
20
190.593477
11
70.263487
21
193.610500
0
LINE
8
Layer 1
10
70.263487
20
193.610500
11
69.834996
21
196.667273
0
LINE
8
Layer 1
10
69.834996
20
196.667273
11
69.739392
21
199.737687
0
LINE
8
Layer 1
10
69.739392
20
199.737687
11
70.015965
21
202.795633
0
LINE
8
Layer 1
10
70.015965
20
202.795633
11
70.704000
21
205.815000
0
LINE
8
Layer 1
10
70.704000
20
205.815000
11
71.628417
21
208.205250
0
LINE
8
Layer 1
10
71.628417
20
208.205250
11
72.937537
21
210.440250
0
LINE
8
Layer 1
10
72.937537
20
210.440250
11
74.634764
21
212.372625
0
LINE
8
Layer 1
10
74.634764
20
212.372625
11
75.629981
21
213.179273
0
LINE
8
Layer 1
10
75.629981
20
213.179273
11
76.723500
21
213.855000
0
LINE
8
Layer 1
10
76.723500
20
213.855000
11
78.447185
21
214.568047
0
LINE
8
Layer 1
10
78.447185
20
214.568047
11
80.240827
21
214.955312
0
LINE
8
Layer 1
10
80.240827
20
214.955312
11
82.077296
21
215.054109
0
LINE
8
Layer 1
10
82.077296
20
215.054109
11
83.929462
21
214.901750
0
LINE
8
Layer 1
10
83.929462
20
214.901750
11
85.770196
21
214.535547
0
LINE
8
Layer 1
10
85.770196
20
214.535547
11
87.572367
21
213.992812
0
LINE
8
Layer 1
10
87.572367
20
213.992812
11
90.952500
21
212.527000
0
LINE
8
Layer 1
10
90.952500
20
212.527000
11
93.388438
21
211.138500
0
LINE
8
Layer 1
10
93.388438
20
211.138500
11
94.640967
21
210.477813
0
LINE
8
Layer 1
10
94.640967
20
210.477813
11
95.907100
21
209.975000
0
LINE
8
Layer 1
10
95.907100
20
209.975000
11
96.210200
21
210.017875
0
LINE
8
Layer 1
10
96.210200
20
210.017875
11
96.468000
21
210.171000
0
LINE
8
Layer 1
10
96.468000
20
210.171000
11
96.874275
21
210.956125
0
LINE
8
Layer 1
10
96.874275
20
210.956125
11
96.977100
21
211.853000
0
LINE
8
Layer 1
10
96.977100
20
211.853000
11
96.862850
21
215.064125
0
LINE
8
Layer 1
10
96.862850
20
215.064125
11
96.489700
21
218.261000
0
LINE
8
Layer 1
10
96.489700
20
218.261000
11
95.912162
21
223.385750
0
LINE
8
Layer 1
10
95.912162
20
223.385750
11
95.658700
21
228.533000
0
LINE
8
Layer 1
10
95.658700
20
228.533000
11
95.905494
21
232.451687
0
LINE
8
Layer 1
10
95.905494
20
232.451687
11
96.222297
21
234.395445
0
LINE
8
Layer 1
10
96.222297
20
234.395445
11
96.696825
21
236.296500
0
LINE
8
Layer 1
10
96.696825
20
236.296500
11
97.350669
21
238.130617
0
LINE
8
Layer 1
10
97.350669
20
238.130617
11
98.205419
21
239.873563
0
LINE
8
Layer 1
10
98.205419
20
239.873563
11
99.282666
21
241.501102
0
LINE
8
Layer 1
10
99.282666
20
241.501102
11
100.604000
21
242.989000
0
LINE
8
Layer 1
10
100.604000
20
242.989000
11
101.778869
21
244.003834
0
LINE
8
Layer 1
10
101.778869
20
244.003834
11
103.009578
21
244.830922
0
LINE
8
Layer 1
10
103.009578
20
244.830922
11
104.294404
21
245.485393
0
LINE
8
Layer 1
10
104.294404
20
245.485393
11
105.631625
21
245.982375
0
LINE
8
Layer 1
10
105.631625
20
245.982375
11
108.456359
21
246.564391
0
LINE
8
Layer 1
10
108.456359
20
246.564391
11
111.470000
21
246.698000
0
LINE
8
Layer 1
10
111.470000
20
246.698000
11
112.184000
21
248.582000
0
LINE
8
Layer 1
10
112.184000
20
248.582000
11
113.029000
21
250.411000
0
LINE
8
Layer 1
10
113.029000
20
250.411000
11
114.000000
21
252.176000
0
LINE
8
Layer 1
10
114.000000
20
252.176000
11
115.093000
21
253.869000
0
LINE
8
Layer 1
10
115.093000
20
253.869000
11
116.680064
21
255.989500
0
LINE
8
Layer 1
10
116.680064
20
255.989500
11
118.472266
21
258.048875
0
LINE
8
Layer 1
10
118.472266
20
258.048875
11
120.448615
21
259.998562
0
LINE
8
Layer 1
10
120.448615
20
259.998562
11
122.588125
21
261.790000
0
LINE
8
Layer 1
10
122.588125
20
261.790000
11
124.869807
21
263.374625
0
LINE
8
Layer 1
10
124.869807
20
263.374625
11
127.272672
21
264.703875
0
LINE
8
Layer 1
10
127.272672
20
264.703875
11
129.775732
21
265.729187
0
LINE
8
Layer 1
10
129.775732
20
265.729187
11
132.358000
21
266.402000
0
LINE
8
Layer 1
10
132.358000
20
266.402000
11
132.358000
21
266.402000
0
LINE
8
Layer 1
10
130.369000
20
177.078000
11
130.638500
21
174.756875
0
LINE
8
Layer 1
10
130.638500
20
174.756875
11
130.719000
21
172.399000
0
LINE
8
Layer 1
10
130.719000
20
172.399000
11
131.258000
21
162.958000
0
LINE
8
Layer 1
10
131.258000
20
162.958000
11
133.255000
21
136.955000
0
LINE
8
Layer 1
10
133.255000
20
136.955000
11
133.942250
21
129.685625
0
LINE
8
Layer 1
10
133.942250
20
129.685625
11
134.745000
21
122.429000
0
LINE
8
Layer 1
10
134.745000
20
122.429000
11
137.323000
21
95.984100
0
LINE
8
Layer 1
10
137.323000
20
95.984100
11
137.760875
21
87.179525
0
LINE
8
Layer 1
10
137.760875
20
87.179525
11
138.027000
21
78.374800
0
LINE
8
Layer 1
10
138.027000
20
78.374800
11
138.635000
21
67.827200
0
LINE
8
Layer 1
10
138.635000
20
67.827200
11
138.797000
21
60.060600
0
LINE
8
Layer 1
10
138.797000
20
60.060600
11
139.062000
21
51.413000
0
LINE
8
Layer 1
10
139.062000
20
51.413000
11
139.001531
21
45.177344
0
LINE
8
Layer 1
10
139.001531
20
45.177344
11
138.737250
21
38.957550
0
LINE
8
Layer 1
10
138.737250
20
38.957550
11
138.108000
21
26.512300
0
LINE
8
Layer 1
10
138.108000
20
26.512300
11
137.849000
21
17.907800
0
LINE
8
Layer 1
10
137.849000
20
17.907800
11
137.838000
21
14.958512
0
LINE
8
Layer 1
10
137.838000
20
14.958512
11
137.767719
21
13.474330
0
LINE
8
Layer 1
10
137.767719
20
13.474330
11
137.563000
21
12.042000
0
LINE
8
Layer 1
10
137.563000
20
12.042000
11
137.230734
21
10.885252
0
LINE
8
Layer 1
10
137.230734
20
10.885252
11
136.753625
21
9.855970
0
LINE
8
Layer 1
10
136.753625
20
9.855970
11
136.123703
21
8.910973
0
LINE
8
Layer 1
10
136.123703
20
8.910973
11
135.333000
21
8.007080
0
LINE
8
Layer 1
10
135.333000
20
8.007080
11
134.663125
21
7.488732
0
LINE
8
Layer 1
10
134.663125
20
7.488732
11
133.877000
21
7.192430
0
LINE
8
Layer 1
10
133.877000
20
7.192430
11
133.427375
21
7.209894
0
LINE
8
Layer 1
10
133.427375
20
7.209894
11
133.046000
21
7.443260
0
LINE
8
Layer 1
10
133.046000
20
7.443260
11
132.626172
21
8.145562
0
LINE
8
Layer 1
10
132.626172
20
8.145562
11
132.439875
21
9.023286
0
LINE
8
Layer 1
10
132.439875
20
9.023286
11
132.457000
21
10.773600
0
LINE
8
Layer 1
10
132.457000
20
10.773600
11
132.964500
21
15.018275
0
LINE
8
Layer 1
10
132.964500
20
15.018275
11
133.574000
21
19.251100
0
LINE
8
Layer 1
10
133.574000
20
19.251100
11
134.127000
21
25.733100
0
LINE
8
Layer 1
10
134.127000
20
25.733100
11
134.794437
21
38.252608
0
LINE
8
Layer 1
10
134.794437
20
38.252608
11
135.151750
21
50.832162
0
LINE
8
Layer 1
10
135.151750
20
50.832162
11
135.291937
21
63.418111
0
LINE
8
Layer 1
10
135.291937
20
63.418111
11
135.308000
21
75.956800
0
LINE
8
Layer 1
10
135.308000
20
75.956800
11
135.048422
21
91.417163
0
LINE
8
Layer 1
10
135.048422
20
91.417163
11
134.390125
21
106.869500
0
LINE
8
Layer 1
10
134.390125
20
106.869500
11
133.459766
21
122.310287
0
LINE
8
Layer 1
10
133.459766
20
122.310287
11
132.384000
21
137.736000
0
LINE
8
Layer 1
10
132.384000
20
137.736000
11
131.474000
21
150.623500
0
LINE
8
Layer 1
10
131.474000
20
150.623500
11
130.808000
21
163.526000
0
LINE
8
Layer 1
10
130.808000
20
163.526000
11
130.471125
21
170.301625
0
LINE
8
Layer 1
10
130.471125
20
170.301625
11
130.369000
21
177.078000
0
LINE
8
Layer 1
10
130.369000
20
177.078000
11
130.369000
21
177.078000
0
LINE
8
Layer 1
10
132.563000
20
263.365000
11
134.205000
21
263.296000
0
LINE
8
Layer 1
10
134.205000
20
263.296000
11
135.564531
21
262.891000
0
LINE
8
Layer 1
10
135.564531
20
262.891000
11
136.867250
21
262.298500
0
LINE
8
Layer 1
10
136.867250
20
262.298500
11
139.279000
21
260.776000
0
LINE
8
Layer 1
10
139.279000
20
260.776000
11
141.605207
21
258.884102
0
LINE
8
Layer 1
10
141.605207
20
258.884102
11
143.584094
21
256.860250
0
LINE
8
Layer 1
10
143.584094
20
256.860250
11
145.295184
21
254.721461
0
LINE
8
Layer 1
10
145.295184
20
254.721461
11
146.818000
21
252.484750
0
LINE
8
Layer 1
10
146.818000
20
252.484750
11
149.616906
21
247.785625
0
LINE
8
Layer 1
10
149.616906
20
247.785625
11
152.617000
21
242.899000
0
LINE
8
Layer 1
10
152.617000
20
242.899000
11
154.091000
21
243.574000
0
LINE
8
Layer 1
10
154.091000
20
243.574000
11
156.216625
21
244.258875
0
LINE
8
Layer 1
10
156.216625
20
244.258875
11
158.401500
21
244.582250
0
LINE
8
Layer 1
10
158.401500
20
244.582250
11
160.592375
21
244.469500
0
LINE
8
Layer 1
10
160.592375
20
244.469500
11
162.736000
21
243.846000
0
LINE
8
Layer 1
10
162.736000
20
243.846000
11
164.246531
21
243.003281
0
LINE
8
Layer 1
10
164.246531
20
243.003281
11
165.531500
21
241.905000
0
LINE
8
Layer 1
10
165.531500
20
241.905000
11
166.607969
21
240.592219
0
LINE
8
Layer 1
10
166.607969
20
240.592219
11
167.493000
21
239.106000
0
LINE
8
Layer 1
10
167.493000
20
239.106000
11
168.512822
21
236.611186
0
LINE
8
Layer 1
10
168.512822
20
236.611186
11
169.165953
21
233.957734
0
LINE
8
Layer 1
10
169.165953
20
233.957734
11
169.516014
21
231.191010
0
LINE
8
Layer 1
10
169.516014
20
231.191010
11
169.626625
21
228.356375
0
LINE
8
Layer 1
10
169.626625
20
228.356375
11
169.383984
21
222.664828
0
LINE
8
Layer 1
10
169.383984
20
222.664828
11
168.947000
21
217.246000
0
LINE
8
Layer 1
10
168.947000
20
217.246000
11
168.727375
21
213.020750
0
LINE
8
Layer 1
10
168.727375
20
213.020750
11
168.896516
21
210.894812
0
LINE
8
Layer 1
10
168.896516
20
210.894812
11
169.458000
21
208.902000
0
LINE
8
Layer 1
10
169.458000
20
208.902000
11
169.850125
21
208.148188
0
LINE
8
Layer 1
10
169.850125
20
208.148188
11
170.360750
21
207.474250
0
LINE
8
Layer 1
10
170.360750
20
207.474250
11
170.992500
21
206.921438
0
LINE
8
Layer 1
10
170.992500
20
206.921438
11
171.748000
21
206.531000
0
LINE
8
Layer 1
10
171.748000
20
206.531000
11
173.061992
21
206.281813
0
LINE
8
Layer 1
10
173.061992
20
206.281813
11
174.342938
21
206.437250
0
LINE
8
Layer 1
10
174.342938
20
206.437250
11
175.582914
21
206.914062
0
LINE
8
Layer 1
10
175.582914
20
206.914062
11
176.774000
21
207.629000
0
LINE
8
Layer 1
10
176.774000
20
207.629000
11
178.977812
21
209.440250
0
LINE
8
Layer 1
10
178.977812
20
209.440250
11
180.891000
21
211.205000
0
LINE
8
Layer 1
10
180.891000
20
211.205000
11
182.768000
21
212.692000
0
LINE
8
Layer 1
10
182.768000
20
212.692000
11
184.822000
21
213.918000
0
LINE
8
Layer 1
10
184.822000
20
213.918000
11
186.240969
21
214.467234
0
LINE
8
Layer 1
10
186.240969
20
214.467234
11
187.728750
21
214.762125
0
LINE
8
Layer 1
10
187.728750
20
214.762125
11
189.237906
21
214.755703
0
LINE
8
Layer 1
10
189.237906
20
214.755703
11
190.721000
21
214.401000
0
LINE
8
Layer 1
10
190.721000
20
214.401000
11
191.945609
21
213.807625
0
LINE
8
Layer 1
10
191.945609
20
213.807625
11
192.990125
21
213.011000
0
LINE
8
Layer 1
10
192.990125
20
213.011000
11
193.843578
21
212.012625
0
LINE
8
Layer 1
10
193.843578
20
212.012625
11
194.495000
21
210.814000
0
LINE
8
Layer 1
10
194.495000
20
210.814000
11
194.944875
21
209.316891
0
LINE
8
Layer 1
10
194.944875
20
209.316891
11
195.144250
21
207.724625
0
LINE
8
Layer 1
10
195.144250
20
207.724625
11
195.090000
21
204.549000
0
LINE
8
Layer 1
10
195.090000
20
204.549000
11
194.825852
21
202.095273
0
LINE
8
Layer 1
10
194.825852
20
202.095273
11
194.384000
21
199.645250
0
LINE
8
Layer 1
10
194.384000
20
199.645250
11
193.045750
21
194.797750
0
LINE
8
Layer 1
10
193.045750
20
194.797750
11
191.232375
21
190.089375
0
LINE
8
Layer 1
10
191.232375
20
190.089375
11
189.101000
21
185.603000
0
LINE
8
Layer 1
10
189.101000
20
185.603000
11
186.923625
21
181.524125
0
LINE
8
Layer 1
10
186.923625
20
181.524125
11
184.906000
21
177.365000
0
LINE
8
Layer 1
10
184.906000
20
177.365000
11
183.768875
21
174.626250
0
LINE
8
Layer 1
10
183.768875
20
174.626250
11
182.686500
21
171.455500
0
LINE
8
Layer 1
10
182.686500
20
171.455500
11
182.313969
21
169.832344
0
LINE
8
Layer 1
10
182.313969
20
169.832344
11
182.132875
21
168.250250
0
LINE
8
Layer 1
10
182.132875
20
168.250250
11
182.202469
21
166.758906
0
LINE
8
Layer 1
10
182.202469
20
166.758906
11
182.582000
21
165.408000
0
LINE
8
Layer 1
10
182.582000
20
165.408000
11
183.328250
21
164.304000
0
LINE
8
Layer 1
10
183.328250
20
164.304000
11
183.846500
21
163.893469
0
LINE
8
Layer 1
10
183.846500
20
163.893469
11
184.457000
21
163.608000
0
LINE
8
Layer 1
10
184.457000
20
163.608000
11
185.180719
21
163.462125
0
LINE
8
Layer 1
10
185.180719
20
163.462125
11
185.906500
21
163.475250
0
LINE
8
Layer 1
10
185.906500
20
163.475250
11
187.323000
21
163.848000
0
LINE
8
Layer 1
10
187.323000
20
163.848000
11
189.048859
21
164.683578
0
LINE
8
Layer 1
10
189.048859
20
164.683578
11
190.750625
21
165.740125
0
LINE
8
Layer 1
10
190.750625
20
165.740125
11
194.008000
21
167.960000
0
LINE
8
Layer 1
10
194.008000
20
167.960000
11
198.477625
21
170.719750
0
LINE
8
Layer 1
10
198.477625
20
170.719750
11
203.074000
21
173.262000
0
LINE
8
Layer 1
10
203.074000
20
173.262000
11
206.600453
21
174.863906
0
LINE
8
Layer 1
10
206.600453
20
174.863906
11
208.540920
21
175.554996
0
LINE
8
Layer 1
10
208.540920
20
175.554996
11
210.546625
21
176.112750
0
LINE
8
Layer 1
10
210.546625
20
176.112750
11
212.577877
21
176.492098
0
LINE
8
Layer 1
10
212.577877
20
176.492098
11
214.594984
21
176.647969
0
LINE
8
Layer 1
10
214.594984
20
176.647969
11
216.558256
21
176.535293
0
LINE
8
Layer 1
10
216.558256
20
176.535293
11
218.428000
21
176.109000
0
LINE
8
Layer 1
10
218.428000
20
176.109000
11
219.719594
21
175.524094
0
LINE
8
Layer 1
10
219.719594
20
175.524094
11
220.846750
21
174.696000
0
LINE
8
Layer 1
10
220.846750
20
174.696000
11
221.789781
21
173.660156
0
LINE
8
Layer 1
10
221.789781
20
173.660156
11
222.529000
21
172.452000
0
LINE
8
Layer 1
10
222.529000
20
172.452000
11
223.232383
21
170.399063
0
LINE
8
Layer 1
10
223.232383
20
170.399063
11
223.560812
21
168.011625
0
LINE
8
Layer 1
10
223.560812
20
168.011625
11
223.567586
21
165.401625
0
LINE
8
Layer 1
10
223.567586
20
165.401625
11
223.306000
21
162.681000
0
LINE
8
Layer 1
10
223.306000
20
162.681000
11
222.829352
21
159.961688
0
LINE
8
Layer 1
10
222.829352
20
159.961688
11
222.190937
21
157.355625
0
LINE
8
Layer 1
10
222.190937
20
157.355625
11
221.444055
21
154.974750
0
LINE
8
Layer 1
10
221.444055
20
154.974750
11
220.642000
21
152.931000
0
LINE
8
Layer 1
10
220.642000
20
152.931000
11
218.953750
21
149.760500
0
LINE
8
Layer 1
10
218.953750
20
149.760500
11
218.109906
21
148.166625
0
LINE
8
Layer 1
10
218.109906
20
148.166625
11
217.450000
21
146.542000
0
LINE
8
Layer 1
10
217.450000
20
146.542000
11
217.406000
21
146.393000
0
LINE
8
Layer 1
10
217.406000
20
146.393000
11
217.903000
21
145.440000
0
LINE
8
Layer 1
10
217.903000
20
145.440000
11
218.750531
21
144.922875
0
LINE
8
Layer 1
10
218.750531
20
144.922875
11
220.063250
21
144.478500
0
LINE
8
Layer 1
10
220.063250
20
144.478500
11
221.492594
21
143.967375
0
LINE
8
Layer 1
10
221.492594
20
143.967375
11
222.690000
21
143.250000
0
LINE
8
Layer 1
10
222.690000
20
143.250000
11
223.466922
21
142.342750
0
LINE
8
Layer 1
10
223.466922
20
142.342750
11
224.008625
21
141.282500
0
LINE
8
Layer 1
10
224.008625
20
141.282500
11
224.340516
21
140.129250
0
LINE
8
Layer 1
10
224.340516
20
140.129250
11
224.488000
21
138.943000
0
LINE
8
Layer 1
10
224.488000
20
138.943000
11
224.359516
21
136.855516
0
LINE
8
Layer 1
10
224.359516
20
136.855516
11
223.827625
21
134.804125
0
LINE
8
Layer 1
10
223.827625
20
134.804125
11
223.012422
21
132.832422
0
LINE
8
Layer 1
10
223.012422
20
132.832422
11
222.034000
21
130.984000
0
LINE
8
Layer 1
10
222.034000
20
130.984000
11
220.466717
21
128.524561
0
LINE
8
Layer 1
10
220.466717
20
128.524561
11
218.720547
21
126.244734
0
LINE
8
Layer 1
10
218.720547
20
126.244734
11
216.816760
21
124.123135
0
LINE
8
Layer 1
10
216.816760
20
124.123135
11
214.776625
21
122.138375
0
LINE
8
Layer 1
10
214.776625
20
122.138375
11
210.372391
21
118.493828
0
LINE
8
Layer 1
10
210.372391
20
118.493828
11
205.678000
21
115.140000
0
LINE
8
Layer 1
10
205.678000
20
115.140000
11
201.587875
21
112.303500
0
LINE
8
Layer 1
10
201.587875
20
112.303500
11
199.632391
21
110.739844
0
LINE
8
Layer 1
10
199.632391
20
110.739844
11
197.875000
21
109.020000
0
LINE
8
Layer 1
10
197.875000
20
109.020000
11
197.117125
21
107.986750
0
LINE
8
Layer 1
10
197.117125
20
107.986750
11
196.905953
21
107.403937
0
LINE
8
Layer 1
10
196.905953
20
107.403937
11
196.870000
21
106.748000
0
LINE
8
Layer 1
10
196.870000
20
106.748000
11
197.232000
21
105.830125
0
LINE
8
Layer 1
10
197.232000
20
105.830125
11
197.597313
21
105.516266
0
LINE
8
Layer 1
10
197.597313
20
105.516266
11
198.077000
21
105.336000
0
LINE
8
Layer 1
10
198.077000
20
105.336000
11
199.454750
21
105.325375
0
LINE
8
Layer 1
10
199.454750
20
105.325375
11
200.834000
21
105.524000
0
LINE
8
Layer 1
10
200.834000
20
105.524000
11
203.029797
21
105.644328
0
LINE
8
Layer 1
10
203.029797
20
105.644328
11
205.207125
21
105.422375
0
LINE
8
Layer 1
10
205.207125
20
105.422375
11
207.282641
21
104.780234
0
LINE
8
Layer 1
10
207.282641
20
104.780234
11
209.173000
21
103.640000
0
LINE
8
Layer 1
10
209.173000
20
103.640000
11
210.124016
21
102.718109
0
LINE
8
Layer 1
10
210.124016
20
102.718109
11
210.862875
21
101.649875
0
LINE
8
Layer 1
10
210.862875
20
101.649875
11
211.375047
21
100.456953
0
LINE
8
Layer 1
10
211.375047
20
100.456953
11
211.646000
21
99.161000
0
LINE
8
Layer 1
10
211.646000
20
99.161000
11
211.693639
21
97.647171
0
LINE
8
Layer 1
10
211.693639
20
97.647171
11
211.525547
21
96.137447
0
LINE
8
Layer 1
10
211.525547
20
96.137447
11
211.167963
21
94.646393
0
LINE
8
Layer 1
10
211.167963
20
94.646393
11
210.647125
21
93.188575
0
LINE
8
Layer 1
10
210.647125
20
93.188575
11
209.220641
21
90.430916
0
LINE
8
Layer 1
10
209.220641
20
90.430916
11
207.456000
21
87.981000
0
LINE
8
Layer 1
10
207.456000
20
87.981000
11
205.512838
21
85.806742
0
LINE
8
Layer 1
10
205.512838
20
85.806742
11
203.381578
21
83.745500
0
LINE
8
Layer 1
10
203.381578
20
83.745500
11
201.091436
21
81.805383
0
LINE
8
Layer 1
10
201.091436
20
81.805383
11
198.671625
21
79.994500
0
LINE
8
Layer 1
10
198.671625
20
79.994500
11
196.151361
21
78.320961
0
LINE
8
Layer 1
10
196.151361
20
78.320961
11
193.559859
21
76.792875
0
LINE
8
Layer 1
10
193.559859
20
76.792875
11
190.926334
21
75.418352
0
LINE
8
Layer 1
10
190.926334
20
75.418352
11
188.280000
21
74.205500
0
LINE
8
Layer 1
10
188.280000
20
74.205500
11
182.630000
21
72.125264
0
LINE
8
Layer 1
10
182.630000
20
72.125264
11
176.542750
21
69.954212
0
LINE
8
Layer 1
10
176.542750
20
69.954212
11
173.590977
21
68.675587
0
LINE
8
Layer 1
10
173.590977
20
68.675587
11
170.836875
21
67.183405
0
LINE
8
Layer 1
10
170.836875
20
67.183405
11
168.382773
21
65.414048
0
LINE
8
Layer 1
10
168.382773
20
65.414048
11
167.300200
21
64.405549
0
LINE
8
Layer 1
10
167.300200
20
64.405549
11
166.331000
21
63.303900
0
LINE
8
Layer 1
10
166.331000
20
63.303900
11
165.685000
21
62.300287
0
LINE
8
Layer 1
10
165.685000
20
62.300287
11
165.501312
21
61.728802
0
LINE
8
Layer 1
10
165.501312
20
61.728802
11
165.513000
21
61.145700
0
LINE
8
Layer 1
10
165.513000
20
61.145700
11
165.685055
21
60.770584
0
LINE
8
Layer 1
10
165.685055
20
60.770584
11
165.996096
21
60.474813
0
LINE
8
Layer 1
10
165.996096
20
60.474813
11
166.965391
21
60.083753
0
LINE
8
Layer 1
10
166.965391
20
60.083753
11
168.281396
21
59.897411
0
LINE
8
Layer 1
10
168.281396
20
59.897411
11
169.804625
21
59.840675
0
LINE
8
Layer 1
10
169.804625
20
59.840675
11
172.914797
21
59.815584
0
LINE
8
Layer 1
10
172.914797
20
59.815584
11
174.222764
21
59.697009
0
LINE
8
Layer 1
10
174.222764
20
59.697009
11
175.180000
21
59.407600
0
LINE
8
Layer 1
10
175.180000
20
59.407600
11
175.758750
21
58.936875
0
LINE
8
Layer 1
10
175.758750
20
58.936875
11
176.108000
21
58.279400
0
LINE
8
Layer 1
10
176.108000
20
58.279400
11
176.194109
21
57.461255
0
LINE
8
Layer 1
10
176.194109
20
57.461255
11
176.056625
21
56.628588
0
LINE
8
Layer 1
10
176.056625
20
56.628588
11
175.391000
21
55.092300
0
LINE
8
Layer 1
10
175.391000
20
55.092300
11
173.749381
21
52.835158
0
LINE
8
Layer 1
10
173.749381
20
52.835158
11
171.613734
21
50.746661
0
LINE
8
Layer 1
10
171.613734
20
50.746661
11
169.110002
21
48.812193
0
LINE
8
Layer 1
10
169.110002
20
48.812193
11
166.364125
21
47.017137
0
LINE
8
Layer 1
10
166.364125
20
47.017137
11
160.649703
21
43.786795
0
LINE
8
Layer 1
10
160.649703
20
43.786795
11
155.478000
21
40.938700
0
LINE
8
Layer 1
10
155.478000
20
40.938700
11
152.047625
21
38.703113
0
LINE
8
Layer 1
10
152.047625
20
38.703113
11
148.789000
21
36.222500
0
LINE
8
Layer 1
10
148.789000
20
36.222500
11
146.150094
21
33.894963
0
LINE
8
Layer 1
10
146.150094
20
33.894963
11
144.132000
21
31.659675
0
LINE
8
Layer 1
10
144.132000
20
31.659675
11
142.398156
21
29.191475
0
LINE
8
Layer 1
10
142.398156
20
29.191475
11
140.612000
21
26.165200
0
LINE
8
Layer 1
10
140.612000
20
26.165200
11
140.739125
21
29.666625
0
LINE
8
Layer 1
10
140.739125
20
29.666625
11
140.957000
21
33.167900
0
LINE
8
Layer 1
10
140.957000
20
33.167900
11
143.270754
21
35.833596
0
LINE
8
Layer 1
10
143.270754
20
35.833596
11
145.711469
21
38.397808
0
LINE
8
Layer 1
10
145.711469
20
38.397808
11
150.912000
21
43.236937
0
LINE
8
Layer 1
10
150.912000
20
43.236937
11
156.435031
21
47.715598
0
LINE
8
Layer 1
10
156.435031
20
47.715598
11
162.157000
21
51.864100
0
LINE
8
Layer 1
10
162.157000
20
51.864100
11
169.520000
21
56.733700
0
LINE
8
Layer 1
10
169.520000
20
56.733700
11
165.618461
21
54.886978
0
LINE
8
Layer 1
10
165.618461
20
54.886978
11
161.718750
21
52.780345
0
LINE
8
Layer 1
10
161.718750
20
52.780345
11
157.867602
21
50.436687
0
LINE
8
Layer 1
10
157.867602
20
50.436687
11
154.111750
21
47.878887
0
LINE
8
Layer 1
10
154.111750
20
47.878887
11
150.497930
21
45.129834
0
LINE
8
Layer 1
10
150.497930
20
45.129834
11
147.072875
21
42.212411
0
LINE
8
Layer 1
10
147.072875
20
42.212411
11
143.883320
21
39.149504
0
LINE
8
Layer 1
10
143.883320
20
39.149504
11
140.976000
21
35.964000
0
LINE
8
Layer 1
10
140.976000
20
35.964000
11
141.268250
21
40.577375
0
LINE
8
Layer 1
10
141.268250
20
40.577375
11
141.389000
21
45.198500
0
LINE
8
Layer 1
10
141.389000
20
45.198500
11
141.309500
21
51.086762
0
LINE
8
Layer 1
10
141.309500
20
51.086762
11
141.336687
21
54.381355
0
LINE
8
Layer 1
10
141.336687
20
54.381355
11
141.536000
21
56.481300
0
LINE
8
Layer 1
10
141.536000
20
56.481300
11
142.369047
21
58.577123
0
LINE
8
Layer 1
10
142.369047
20
58.577123
11
143.593125
21
60.675713
0
LINE
8
Layer 1
10
143.593125
20
60.675713
11
146.413000
21
64.479900
0
LINE
8
Layer 1
10
146.413000
20
64.479900
11
148.747166
21
67.171362
0
LINE
8
Layer 1
10
148.747166
20
67.171362
11
151.317453
21
69.713402
0
LINE
8
Layer 1
10
151.317453
20
69.713402
11
154.089420
21
72.095150
0
LINE
8
Layer 1
10
154.089420
20
72.095150
11
157.028625
21
74.305738
0
LINE
8
Layer 1
10
157.028625
20
74.305738
11
160.100627
21
76.334296
0
LINE
8
Layer 1
10
160.100627
20
76.334296
11
163.270984
21
78.169955
0
LINE
8
Layer 1
10
163.270984
20
78.169955
11
166.505256
21
79.801846
0
LINE
8
Layer 1
10
166.505256
20
79.801846
11
169.769000
21
81.219100
0
LINE
8
Layer 1
10
169.769000
20
81.219100
11
176.212875
21
83.607462
0
LINE
8
Layer 1
10
176.212875
20
83.607462
11
179.417422
21
84.827327
0
LINE
8
Layer 1
10
179.417422
20
84.827327
11
182.584000
21
86.208000
0
LINE
8
Layer 1
10
182.584000
20
86.208000
11
185.419531
21
87.671428
0
LINE
8
Layer 1
10
185.419531
20
87.671428
11
188.151000
21
89.282175
0
LINE
8
Layer 1
10
188.151000
20
89.282175
11
193.427000
21
92.840100
0
LINE
8
Layer 1
10
193.427000
20
92.840100
11
197.066500
21
95.487950
0
LINE
8
Layer 1
10
197.066500
20
95.487950
11
198.820250
21
96.941175
0
LINE
8
Layer 1
10
198.820250
20
96.941175
11
200.385000
21
98.505100
0
LINE
8
Layer 1
10
200.385000
20
98.505100
11
200.267000
21
98.515100
0
LINE
8
Layer 1
10
200.267000
20
98.515100
11
200.396000
21
98.521500
0
LINE
8
Layer 1
10
200.396000
20
98.521500
11
200.296000
21
98.351100
0
LINE
8
Layer 1
10
200.296000
20
98.351100
11
200.117000
21
98.408200
0
LINE
8
Layer 1
10
200.117000
20
98.408200
11
196.422000
21
95.490400
0
LINE
8
Layer 1
10
196.422000
20
95.490400
11
192.524453
21
92.977541
0
LINE
8
Layer 1
10
192.524453
20
92.977541
11
188.418125
21
90.768975
0
LINE
8
Layer 1
10
188.418125
20
90.768975
11
184.167234
21
88.845672
0
LINE
8
Layer 1
10
184.167234
20
88.845672
11
179.836000
21
87.188600
0
LINE
8
Layer 1
10
179.836000
20
87.188600
11
174.616375
21
85.492612
0
LINE
8
Layer 1
10
174.616375
20
85.492612
11
169.438000
21
83.681500
0
LINE
8
Layer 1
10
169.438000
20
83.681500
11
166.386211
21
82.342919
0
LINE
8
Layer 1
10
166.386211
20
82.342919
11
163.344500
21
80.792875
0
LINE
8
Layer 1
10
163.344500
20
80.792875
11
160.344977
21
79.050944
0
LINE
8
Layer 1
10
160.344977
20
79.050944
11
157.419750
21
77.136700
0
LINE
8
Layer 1
10
157.419750
20
77.136700
11
154.600930
21
75.069719
0
LINE
8
Layer 1
10
154.600930
20
75.069719
11
151.920625
21
72.869575
0
LINE
8
Layer 1
10
151.920625
20
72.869575
11
149.410945
21
70.555844
0
LINE
8
Layer 1
10
149.410945
20
70.555844
11
147.104000
21
68.148100
0
LINE
8
Layer 1
10
147.104000
20
68.148100
11
144.034375
21
64.351775
0
LINE
8
Layer 1
10
144.034375
20
64.351775
11
141.216000
21
60.363300
0
LINE
8
Layer 1
10
141.216000
20
60.363300
11
141.107125
21
66.273413
0
LINE
8
Layer 1
10
141.107125
20
66.273413
11
140.732000
21
72.178800
0
LINE
8
Layer 1
10
140.732000
20
72.178800
11
140.500625
21
76.495913
0
LINE
8
Layer 1
10
140.500625
20
76.495913
11
140.300984
21
78.655833
0
LINE
8
Layer 1
10
140.300984
20
78.655833
11
139.949000
21
80.769000
0
LINE
8
Layer 1
10
139.949000
20
80.769000
11
142.791125
21
85.641638
0
LINE
8
Layer 1
10
142.791125
20
85.641638
11
145.733000
21
90.452700
0
LINE
8
Layer 1
10
145.733000
20
90.452700
11
153.913000
21
105.014000
0
LINE
8
Layer 1
10
153.913000
20
105.014000
11
159.208500
21
107.257250
0
LINE
8
Layer 1
10
159.208500
20
107.257250
11
164.621000
21
109.199000
0
LINE
8
Layer 1
10
164.621000
20
109.199000
11
171.705125
21
111.226875
0
LINE
8
Layer 1
10
171.705125
20
111.226875
11
178.829000
21
113.107000
0
LINE
8
Layer 1
10
178.829000
20
113.107000
11
183.804902
21
114.536758
0
LINE
8
Layer 1
10
183.804902
20
114.536758
11
188.770281
21
116.144500
0
LINE
8
Layer 1
10
188.770281
20
116.144500
11
193.655270
21
117.992805
0
LINE
8
Layer 1
10
193.655270
20
117.992805
11
198.390000
21
120.144250
0
LINE
8
Layer 1
10
198.390000
20
120.144250
11
202.904605
21
122.661414
0
LINE
8
Layer 1
10
202.904605
20
122.661414
11
207.129219
21
125.606875
0
LINE
8
Layer 1
10
207.129219
20
125.606875
11
209.110945
21
127.259772
0
LINE
8
Layer 1
10
209.110945
20
127.259772
11
210.993973
21
129.043211
0
LINE
8
Layer 1
10
210.993973
20
129.043211
11
212.769569
21
130.965013
0
LINE
8
Layer 1
10
212.769569
20
130.965013
11
214.429000
21
133.033000
0
LINE
8
Layer 1
10
214.429000
20
133.033000
11
215.681750
21
134.702250
0
LINE
8
Layer 1
10
215.681750
20
134.702250
11
216.828000
21
136.442000
0
LINE
8
Layer 1
10
216.828000
20
136.442000
11
216.738000
21
136.500000
0
LINE
8
Layer 1
10
216.738000
20
136.500000
11
213.977179
21
133.466585
0
LINE
8
Layer 1
10
213.977179
20
133.466585
11
211.155979
21
130.774506
0
LINE
8
Layer 1
10
211.155979
20
130.774506
11
208.274043
21
128.393076
0
LINE
8
Layer 1
10
208.274043
20
128.393076
11
205.331016
21
126.291609
0
LINE
8
Layer 1
10
205.331016
20
126.291609
11
202.326541
21
124.439418
0
LINE
8
Layer 1
10
202.326541
20
124.439418
11
199.260264
21
122.805814
0
LINE
8
Layer 1
10
199.260264
20
122.805814
11
196.131827
21
121.360113
0
LINE
8
Layer 1
10
196.131827
20
121.360113
11
192.940875
21
120.071625
0
LINE
8
Layer 1
10
192.940875
20
120.071625
11
186.370002
21
117.843545
0
LINE
8
Layer 1
10
186.370002
20
117.843545
11
179.544797
21
115.876078
0
LINE
8
Layer 1
10
179.544797
20
115.876078
11
172.462412
21
113.923729
0
LINE
8
Layer 1
10
172.462412
20
113.923729
11
165.120000
21
111.741000
0
LINE
8
Layer 1
10
165.120000
20
111.741000
11
160.344750
21
109.972000
0
LINE
8
Layer 1
10
160.344750
20
109.972000
11
155.637000
21
108.017000
0
LINE
8
Layer 1
10
155.637000
20
108.017000
11
157.194375
21
110.429625
0
LINE
8
Layer 1
10
157.194375
20
110.429625
11
158.853000
21
112.777000
0
LINE
8
Layer 1
10
158.853000
20
112.777000
11
161.675250
21
116.655125
0
LINE
8
Layer 1
10
161.675250
20
116.655125
11
164.661000
21
120.408000
0
LINE
8
Layer 1
10
164.661000
20
120.408000
11
167.621625
21
123.695125
0
LINE
8
Layer 1
10
167.621625
20
123.695125
11
170.676000
21
126.899000
0
LINE
8
Layer 1
10
170.676000
20
126.899000
11
182.067000
21
138.612000
0
LINE
8
Layer 1
10
182.067000
20
138.612000
11
188.619625
21
145.259125
0
LINE
8
Layer 1
10
188.619625
20
145.259125
11
191.966016
21
148.524516
0
LINE
8
Layer 1
10
191.966016
20
148.524516
11
195.410000
21
151.652000
0
LINE
8
Layer 1
10
195.410000
20
151.652000
11
198.841328
21
154.473016
0
LINE
8
Layer 1
10
198.841328
20
154.473016
11
202.360125
21
157.186125
0
LINE
8
Layer 1
10
202.360125
20
157.186125
11
205.885859
21
159.891922
0
LINE
8
Layer 1
10
205.885859
20
159.891922
11
209.338000
21
162.691000
0
LINE
8
Layer 1
10
209.338000
20
162.691000
11
209.318000
21
162.819000
0
LINE
8
Layer 1
10
209.318000
20
162.819000
11
208.213656
21
162.155750
0
LINE
8
Layer 1
10
208.213656
20
162.155750
11
207.078000
21
161.305750
0
LINE
8
Layer 1
10
207.078000
20
161.305750
11
204.835000
21
159.638000
0
LINE
8
Layer 1
10
204.835000
20
159.638000
11
199.504250
21
156.321375
0
LINE
8
Layer 1
10
199.504250
20
156.321375
11
196.886875
21
154.585766
0
LINE
8
Layer 1
10
196.886875
20
154.585766
11
194.358000
21
152.731000
0
LINE
8
Layer 1
10
194.358000
20
152.731000
11
191.110953
21
150.026422
0
LINE
8
Layer 1
10
191.110953
20
150.026422
11
187.991125
21
147.164625
0
LINE
8
Layer 1
10
187.991125
20
147.164625
11
181.928000
21
141.260000
0
LINE
8
Layer 1
10
181.928000
20
141.260000
11
175.978625
21
135.317375
0
LINE
8
Layer 1
10
175.978625
20
135.317375
11
170.144000
21
129.263000
0
LINE
8
Layer 1
10
170.144000
20
129.263000
11
165.743375
21
124.616250
0
LINE
8
Layer 1
10
165.743375
20
124.616250
11
161.528000
21
119.803000
0
LINE
8
Layer 1
10
161.528000
20
119.803000
11
156.874375
21
113.625000
0
LINE
8
Layer 1
10
156.874375
20
113.625000
11
152.562000
21
107.198000
0
LINE
8
Layer 1
10
152.562000
20
107.198000
11
149.263547
21
101.565225
0
LINE
8
Layer 1
10
149.263547
20
101.565225
11
146.260125
21
95.750950
0
LINE
8
Layer 1
10
146.260125
20
95.750950
11
143.265141
21
89.932625
0
LINE
8
Layer 1
10
143.265141
20
89.932625
11
139.992000
21
84.287700
0
LINE
8
Layer 1
10
139.992000
20
84.287700
11
139.617859
21
87.914509
0
LINE
8
Layer 1
10
139.617859
20
87.914509
11
139.383875
21
91.571300
0
LINE
8
Layer 1
10
139.383875
20
91.571300
11
138.952000
21
98.878900
0
LINE
8
Layer 1
10
138.952000
20
98.878900
11
138.134750
21
107.333988
0
LINE
8
Layer 1
10
138.134750
20
107.333988
11
137.220000
21
115.780000
0
LINE
8
Layer 1
10
137.220000
20
115.780000
11
136.002000
21
127.681000
0
LINE
8
Layer 1
10
136.002000
20
127.681000
11
138.147625
21
129.418625
0
LINE
8
Layer 1
10
138.147625
20
129.418625
11
140.402000
21
131.031000
0
LINE
8
Layer 1
10
140.402000
20
131.031000
11
144.320625
21
134.164750
0
LINE
8
Layer 1
10
144.320625
20
134.164750
11
146.154266
21
135.867375
0
LINE
8
Layer 1
10
146.154266
20
135.867375
11
147.886000
21
137.693000
0
LINE
8
Layer 1
10
147.886000
20
137.693000
11
149.241850
21
139.346602
0
LINE
8
Layer 1
10
149.241850
20
139.346602
11
150.443611
21
141.050361
0
LINE
8
Layer 1
10
150.443611
20
141.050361
11
152.461141
21
144.582578
0
LINE
8
Layer 1
10
152.461141
20
144.582578
11
154.091131
21
148.238100
0
LINE
8
Layer 1
10
154.091131
20
148.238100
11
155.486125
21
151.965375
0
LINE
8
Layer 1
10
155.486125
20
151.965375
11
158.181297
21
159.428984
0
LINE
8
Layer 1
10
158.181297
20
159.428984
11
159.786561
21
163.062217
0
LINE
8
Layer 1
10
159.786561
20
163.062217
11
161.767000
21
166.561000
0
LINE
8
Layer 1
10
161.767000
20
166.561000
11
163.648641
21
169.049250
0
LINE
8
Layer 1
10
163.648641
20
169.049250
11
165.747125
21
171.245000
0
LINE
8
Layer 1
10
165.747125
20
171.245000
11
170.277000
21
175.392000
0
LINE
8
Layer 1
10
170.277000
20
175.392000
11
173.334625
21
178.517125
0
LINE
8
Layer 1
10
173.334625
20
178.517125
11
176.093000
21
181.907000
0
LINE
8
Layer 1
10
176.093000
20
181.907000
11
177.672107
21
184.267088
0
LINE
8
Layer 1
10
177.672107
20
184.267088
11
179.043547
21
186.740391
0
LINE
8
Layer 1
10
179.043547
20
186.740391
11
180.224369
21
189.309342
0
LINE
8
Layer 1
10
180.224369
20
189.309342
11
181.231625
21
191.956375
0
LINE
8
Layer 1
10
181.231625
20
191.956375
11
182.082365
21
194.663924
0
LINE
8
Layer 1
10
182.082365
20
194.663924
11
182.793641
21
197.414422
0
LINE
8
Layer 1
10
182.793641
20
197.414422
11
183.866000
21
202.974000
0
LINE
8
Layer 1
10
183.866000
20
202.974000
11
184.237000
21
204.829375
0
LINE
8
Layer 1
10
184.237000
20
204.829375
11
184.360437
21
205.791422
0
LINE
8
Layer 1
10
184.360437
20
205.791422
11
184.314000
21
206.678000
0
LINE
8
Layer 1
10
184.314000
20
206.678000
11
184.269000
21
206.869375
0
LINE
8
Layer 1
10
184.269000
20
206.869375
11
184.101000
21
206.976000
0
LINE
8
Layer 1
10
184.101000
20
206.976000
11
183.309813
21
204.969500
0
LINE
8
Layer 1
10
183.309813
20
204.969500
11
182.047250
21
200.963500
0
LINE
8
Layer 1
10
182.047250
20
200.963500
11
179.959000
21
194.129000
0
LINE
8
Layer 1
10
179.959000
20
194.129000
11
178.697375
21
190.787875
0
LINE
8
Layer 1
10
178.697375
20
190.787875
11
177.204000
21
187.545000
0
LINE
8
Layer 1
10
177.204000
20
187.545000
11
175.634734
21
184.841922
0
LINE
8
Layer 1
10
175.634734
20
184.841922
11
173.805875
21
182.212625
0
LINE
8
Layer 1
10
173.805875
20
182.212625
11
171.774328
21
179.734266
0
LINE
8
Layer 1
10
171.774328
20
179.734266
11
169.597000
21
177.484000
0
LINE
8
Layer 1
10
169.597000
20
177.484000
11
165.034625
21
173.320250
0
LINE
8
Layer 1
10
165.034625
20
173.320250
11
162.869641
21
171.135625
0
LINE
8
Layer 1
10
162.869641
20
171.135625
11
160.923000
21
168.726000
0
LINE
8
Layer 1
10
160.923000
20
168.726000
11
159.175187
21
165.935484
0
LINE
8
Layer 1
10
159.175187
20
165.935484
11
157.643000
21
162.929625
0
LINE
8
Layer 1
10
157.643000
20
162.929625
11
156.308812
21
159.823453
0
LINE
8
Layer 1
10
156.308812
20
159.823453
11
155.155000
21
156.732000
0
LINE
8
Layer 1
10
155.155000
20
156.732000
11
153.240469
21
151.393297
0
LINE
8
Layer 1
10
153.240469
20
151.393297
11
151.068500
21
146.268625
0
LINE
8
Layer 1
10
151.068500
20
146.268625
11
149.780566
21
143.823787
0
LINE
8
Layer 1
10
149.780566
20
143.823787
11
148.301781
21
141.477141
0
LINE
8
Layer 1
10
148.301781
20
141.477141
11
146.589980
21
139.243580
0
LINE
8
Layer 1
10
146.589980
20
139.243580
11
144.603000
21
137.138000
0
LINE
8
Layer 1
10
144.603000
20
137.138000
11
142.467547
21
135.226844
0
LINE
8
Layer 1
10
142.467547
20
135.226844
11
140.234875
21
133.407750
0
LINE
8
Layer 1
10
140.234875
20
133.407750
11
135.680000
21
129.898000
0
LINE
8
Layer 1
10
135.680000
20
129.898000
11
134.841750
21
139.921375
0
LINE
8
Layer 1
10
134.841750
20
139.921375
11
133.966000
21
149.938000
0
LINE
8
Layer 1
10
133.966000
20
149.938000
11
135.790375
21
151.414625
0
LINE
8
Layer 1
10
135.790375
20
151.414625
11
137.662000
21
152.838000
0
LINE
8
Layer 1
10
137.662000
20
152.838000
11
139.991250
21
154.802375
0
LINE
8
Layer 1
10
139.991250
20
154.802375
11
142.229000
21
156.871000
0
LINE
8
Layer 1
10
142.229000
20
156.871000
11
145.588488
21
160.292937
0
LINE
8
Layer 1
10
145.588488
20
160.292937
11
148.929906
21
164.121562
0
LINE
8
Layer 1
10
148.929906
20
164.121562
11
152.164684
21
168.278219
0
LINE
8
Layer 1
10
152.164684
20
168.278219
11
155.204250
21
172.684250
0
LINE
8
Layer 1
10
155.204250
20
172.684250
11
157.960035
21
177.261000
0
LINE
8
Layer 1
10
157.960035
20
177.261000
11
160.343469
21
181.929812
0
LINE
8
Layer 1
10
160.343469
20
181.929812
11
162.265980
21
186.612031
0
LINE
8
Layer 1
10
162.265980
20
186.612031
11
163.639000
21
191.229000
0
LINE
8
Layer 1
10
163.639000
20
191.229000
11
161.910391
21
188.733703
0
LINE
8
Layer 1
10
161.910391
20
188.733703
11
160.168375
21
185.510625
0
LINE
8
Layer 1
10
160.168375
20
185.510625
11
157.066000
21
179.256000
0
LINE
8
Layer 1
10
157.066000
20
179.256000
11
155.033918
21
175.746852
0
LINE
8
Layer 1
10
155.033918
20
175.746852
11
152.585656
21
172.029437
0
LINE
8
Layer 1
10
152.585656
20
172.029437
11
149.802191
21
168.225305
0
LINE
8
Layer 1
10
149.802191
20
168.225305
11
146.764500
21
164.456000
0
LINE
8
Layer 1
10
146.764500
20
164.456000
11
143.553559
21
160.843070
0
LINE
8
Layer 1
10
143.553559
20
160.843070
11
140.250344
21
157.508062
0
LINE
8
Layer 1
10
140.250344
20
157.508062
11
136.935832
21
154.572523
0
LINE
8
Layer 1
10
136.935832
20
154.572523
11
133.691000
21
152.158000
0
LINE
8
Layer 1
10
133.691000
20
152.158000
11
132.714453
21
162.647250
0
LINE
8
Layer 1
10
132.714453
20
162.647250
11
132.096125
21
173.187500
0
LINE
8
Layer 1
10
132.096125
20
173.187500
11
131.267000
21
194.271000
0
LINE
8
Layer 1
10
131.267000
20
194.271000
11
133.321621
21
195.427595
0
LINE
8
Layer 1
10
133.321621
20
195.427595
11
135.298641
21
196.753326
0
LINE
8
Layer 1
10
135.298641
20
196.753326
11
137.198105
21
198.233296
0
LINE
8
Layer 1
10
137.198105
20
198.233296
11
139.020062
21
199.852609
0
LINE
8
Layer 1
10
139.020062
20
199.852609
11
142.431641
21
203.449682
0
LINE
8
Layer 1
10
142.431641
20
203.449682
11
145.533750
21
207.425375
0
LINE
8
Layer 1
10
145.533750
20
207.425375
11
148.326766
21
211.660521
0
LINE
8
Layer 1
10
148.326766
20
211.660521
11
150.811062
21
216.035953
0
LINE
8
Layer 1
10
150.811062
20
216.035953
11
152.987016
21
220.432502
0
LINE
8
Layer 1
10
152.987016
20
220.432502
11
154.855000
21
224.731000
0
LINE
8
Layer 1
10
154.855000
20
224.731000
11
155.876000
21
227.361000
0
LINE
8
Layer 1
10
155.876000
20
227.361000
11
152.528000
21
221.043000
0
LINE
8
Layer 1
10
152.528000
20
221.043000
11
149.330656
21
215.424953
0
LINE
8
Layer 1
10
149.330656
20
215.424953
11
145.756250
21
209.886875
0
LINE
8
Layer 1
10
145.756250
20
209.886875
11
143.795129
21
207.239963
0
LINE
8
Layer 1
10
143.795129
20
207.239963
11
141.700719
21
204.723609
0
LINE
8
Layer 1
10
141.700719
20
204.723609
11
139.460012
21
202.374670
0
LINE
8
Layer 1
10
139.460012
20
202.374670
11
137.060000
21
200.230000
0
LINE
8
Layer 1
10
137.060000
20
200.230000
11
134.217375
21
198.173875
0
LINE
8
Layer 1
10
134.217375
20
198.173875
11
131.230000
21
196.333000
0
LINE
8
Layer 1
10
131.230000
20
196.333000
11
131.059250
21
198.925500
0
LINE
8
Layer 1
10
131.059250
20
198.925500
11
131.010000
21
201.527000
0
LINE
8
Layer 1
10
131.010000
20
201.527000
11
131.011000
21
211.982000
0
LINE
8
Layer 1
10
131.011000
20
211.982000
11
131.756000
21
236.985000
0
LINE
8
Layer 1
10
131.756000
20
236.985000
11
131.931000
21
243.215000
0
LINE
8
Layer 1
10
131.931000
20
243.215000
11
132.064625
21
245.454375
0
LINE
8
Layer 1
10
132.064625
20
245.454375
11
132.085000
21
247.690000
0
LINE
8
Layer 1
10
132.085000
20
247.690000
11
131.845172
21
246.774703
0
LINE
8
Layer 1
10
131.845172
20
246.774703
11
131.709125
21
245.472875
0
LINE
8
Layer 1
10
131.709125
20
245.472875
11
131.568000
21
243.075000
0
LINE
8
Layer 1
10
131.568000
20
243.075000
11
130.178250
21
225.504750
0
LINE
8
Layer 1
10
130.178250
20
225.504750
11
129.217000
21
207.906000
0
LINE
8
Layer 1
10
129.217000
20
207.906000
11
124.985375
21
210.620625
0
LINE
8
Layer 1
10
124.985375
20
210.620625
11
120.972000
21
213.645000
0
LINE
8
Layer 1
10
120.972000
20
213.645000
11
117.685625
21
216.759812
0
LINE
8
Layer 1
10
117.685625
20
216.759812
11
114.661750
21
220.175000
0
LINE
8
Layer 1
10
114.661750
20
220.175000
11
111.828000
21
223.760437
0
LINE
8
Layer 1
10
111.828000
20
223.760437
11
109.112000
21
227.386000
0
LINE
8
Layer 1
10
109.112000
20
227.386000
11
109.113000
21
227.310000
0
LINE
8
Layer 1
10
109.113000
20
227.310000
11
108.903000
21
227.641000
0
LINE
8
Layer 1
10
108.903000
20
227.641000
11
108.901000
21
227.641000
0
LINE
8
Layer 1
10
108.901000
20
227.641000
11
109.084000
21
227.516000
0
LINE
8
Layer 1
10
109.084000
20
227.516000
11
108.950000
21
227.409000
0
LINE
8
Layer 1
10
108.950000
20
227.409000
11
112.004203
21
222.574687
0
LINE
8
Layer 1
10
112.004203
20
222.574687
11
115.358875
21
217.999500
0
LINE
8
Layer 1
10
115.358875
20
217.999500
11
117.180557
21
215.834742
0
LINE
8
Layer 1
10
117.180557
20
215.834742
11
119.115359
21
213.765562
0
LINE
8
Layer 1
10
119.115359
20
213.765562
11
121.175951
21
211.802227
0
LINE
8
Layer 1
10
121.175951
20
211.802227
11
123.375000
21
209.955000
0
LINE
8
Layer 1
10
123.375000
20
209.955000
11
126.163750
21
207.942000
0
LINE
8
Layer 1
10
126.163750
20
207.942000
11
129.005000
21
206.001000
0
LINE
8
Layer 1
10
129.005000
20
206.001000
11
128.821500
21
198.780250
0
LINE
8
Layer 1
10
128.821500
20
198.780250
11
128.512000
21
191.558000
0
LINE
8
Layer 1
10
128.512000
20
191.558000
11
128.450750
21
182.214375
0
LINE
8
Layer 1
10
128.450750
20
182.214375
11
128.556000
21
172.870000
0
LINE
8
Layer 1
10
128.556000
20
172.870000
11
125.746000
21
173.829000
0
LINE
8
Layer 1
10
125.746000
20
173.829000
11
123.805203
21
174.831234
0
LINE
8
Layer 1
10
123.805203
20
174.831234
11
121.996875
21
176.047125
0
LINE
8
Layer 1
10
121.996875
20
176.047125
11
120.300859
21
177.422953
0
LINE
8
Layer 1
10
120.300859
20
177.422953
11
118.697000
21
178.905000
0
LINE
8
Layer 1
10
118.697000
20
178.905000
11
116.165857
21
181.569170
0
LINE
8
Layer 1
10
116.165857
20
181.569170
11
113.903297
21
184.362047
0
LINE
8
Layer 1
10
113.903297
20
184.362047
11
111.875369
21
187.274807
0
LINE
8
Layer 1
10
111.875369
20
187.274807
11
110.048125
21
190.298625
0
LINE
8
Layer 1
10
110.048125
20
190.298625
11
108.387615
21
193.424678
0
LINE
8
Layer 1
10
108.387615
20
193.424678
11
106.859891
21
196.644141
0
LINE
8
Layer 1
10
106.859891
20
196.644141
11
104.067000
21
203.328000
0
LINE
8
Layer 1
10
104.067000
20
203.328000
11
104.011000
21
203.196000
0
LINE
8
Layer 1
10
104.011000
20
203.196000
11
105.635156
21
198.236828
0
LINE
8
Layer 1
10
105.635156
20
198.236828
11
107.519750
21
193.365875
0
LINE
8
Layer 1
10
107.519750
20
193.365875
11
109.725719
21
188.637234
0
LINE
8
Layer 1
10
109.725719
20
188.637234
11
112.314000
21
184.105000
0
LINE
8
Layer 1
10
112.314000
20
184.105000
11
113.802133
21
181.898457
0
LINE
8
Layer 1
10
113.802133
20
181.898457
11
115.456625
21
179.739656
0
LINE
8
Layer 1
10
115.456625
20
179.739656
11
117.273492
21
177.680090
0
LINE
8
Layer 1
10
117.273492
20
177.680090
11
119.248750
21
175.771250
0
LINE
8
Layer 1
10
119.248750
20
175.771250
11
121.378414
21
174.064629
0
LINE
8
Layer 1
10
121.378414
20
174.064629
11
123.658500
21
172.611719
0
LINE
8
Layer 1
10
123.658500
20
172.611719
11
126.085023
21
171.464012
0
LINE
8
Layer 1
10
126.085023
20
171.464012
11
128.654000
21
170.673000
0
LINE
8
Layer 1
10
128.654000
20
170.673000
11
129.289875
21
157.131750
0
LINE
8
Layer 1
10
129.289875
20
157.131750
11
130.102000
21
143.598000
0
LINE
8
Layer 1
10
130.102000
20
143.598000
11
128.522613
21
146.644537
0
LINE
8
Layer 1
10
128.522613
20
146.644537
11
126.894594
21
149.415484
0
LINE
8
Layer 1
10
126.894594
20
149.415484
11
125.179527
21
151.955221
0
LINE
8
Layer 1
10
125.179527
20
151.955221
11
123.339000
21
154.308125
0
LINE
8
Layer 1
10
123.339000
20
154.308125
11
121.334598
21
156.518576
0
LINE
8
Layer 1
10
121.334598
20
156.518576
11
119.127906
21
158.630953
0
LINE
8
Layer 1
10
119.127906
20
158.630953
11
116.680512
21
160.689635
0
LINE
8
Layer 1
10
116.680512
20
160.689635
11
113.954000
21
162.739000
0
LINE
8
Layer 1
10
113.954000
20
162.739000
11
110.000000
21
165.493000
0
LINE
8
Layer 1
10
110.000000
20
165.493000
11
106.124000
21
168.352000
0
LINE
8
Layer 1
10
106.124000
20
168.352000
11
103.114868
21
170.905098
0
LINE
8
Layer 1
10
103.114868
20
170.905098
11
100.411566
21
173.499094
0
LINE
8
Layer 1
10
100.411566
20
173.499094
11
97.972830
21
176.166918
0
LINE
8
Layer 1
10
97.972830
20
176.166918
11
95.757400
21
178.941500
0
LINE
8
Layer 1
10
95.757400
20
178.941500
11
93.724014
21
181.855770
0
LINE
8
Layer 1
10
93.724014
20
181.855770
11
91.831409
21
184.942656
0
LINE
8
Layer 1
10
91.831409
20
184.942656
11
90.038325
21
188.235090
0
LINE
8
Layer 1
10
90.038325
20
188.235090
11
88.303500
21
191.766000
0
LINE
8
Layer 1
10
88.303500
20
191.766000
11
86.702200
21
195.141625
0
LINE
8
Layer 1
10
86.702200
20
195.141625
11
85.305500
21
198.599000
0
LINE
8
Layer 1
10
85.305500
20
198.599000
11
85.086700
21
198.688000
0
LINE
8
Layer 1
10
85.086700
20
198.688000
11
85.084600
21
199.041000
0
LINE
8
Layer 1
10
85.084600
20
199.041000
11
85.055000
21
199.000000
0
LINE
8
Layer 1
10
85.055000
20
199.000000
11
85.537959
21
197.195344
0
LINE
8
Layer 1
10
85.537959
20
197.195344
11
86.573950
21
194.415500
0
LINE
8
Layer 1
10
86.573950
20
194.415500
11
88.568400
21
189.594000
0
LINE
8
Layer 1
10
88.568400
20
189.594000
11
90.437317
21
185.510977
0
LINE
8
Layer 1
10
90.437317
20
185.510977
11
92.386419
21
181.807875
0
LINE
8
Layer 1
10
92.386419
20
181.807875
11
94.469742
21
178.422398
0
LINE
8
Layer 1
10
94.469742
20
178.422398
11
96.741325
21
175.292250
0
LINE
8
Layer 1
10
96.741325
20
175.292250
11
99.255205
21
172.355133
0
LINE
8
Layer 1
10
99.255205
20
172.355133
11
102.065419
21
169.548750
0
LINE
8
Layer 1
10
102.065419
20
169.548750
11
105.226005
21
166.810805
0
LINE
8
Layer 1
10
105.226005
20
166.810805
11
108.791000
21
164.079000
0
LINE
8
Layer 1
10
108.791000
20
164.079000
11
114.934125
21
159.553000
0
LINE
8
Layer 1
10
114.934125
20
159.553000
11
117.875797
21
157.127344
0
LINE
8
Layer 1
10
117.875797
20
157.127344
11
120.625000
21
154.484000
0
LINE
8
Layer 1
10
120.625000
20
154.484000
11
123.333719
21
151.163344
0
LINE
8
Layer 1
10
123.333719
20
151.163344
11
126.124750
21
146.959750
0
LINE
8
Layer 1
10
126.124750
20
146.959750
11
128.535156
21
142.530031
0
LINE
8
Layer 1
10
128.535156
20
142.530031
11
129.452957
21
140.435629
0
LINE
8
Layer 1
10
129.452957
20
140.435629
11
130.102000
21
138.531000
0
LINE
8
Layer 1
10
130.102000
20
138.531000
11
130.470203
21
136.760359
0
LINE
8
Layer 1
10
130.470203
20
136.760359
11
130.671625
21
134.917625
0
LINE
8
Layer 1
10
130.671625
20
134.917625
11
130.870000
21
131.248000
0
LINE
8
Layer 1
10
130.870000
20
131.248000
11
131.415000
21
122.213000
0
LINE
8
Layer 1
10
131.415000
20
122.213000
11
132.375000
21
106.333000
0
LINE
8
Layer 1
10
132.375000
20
106.333000
11
132.903000
21
90.447700
0
LINE
8
Layer 1
10
132.903000
20
90.447700
11
133.151125
21
83.350900
0
LINE
8
Layer 1
10
133.151125
20
83.350900
11
133.190000
21
76.252300
0
LINE
8
Layer 1
10
133.190000
20
76.252300
11
132.464891
21
78.057081
0
LINE
8
Layer 1
10
132.464891
20
78.057081
11
131.598875
21
79.815025
0
LINE
8
Layer 1
10
131.598875
20
79.815025
11
129.695000
21
83.230900
0
LINE
8
Layer 1
10
129.695000
20
83.230900
11
126.254125
21
88.903625
0
LINE
8
Layer 1
10
126.254125
20
88.903625
11
124.376984
21
91.629334
0
LINE
8
Layer 1
10
124.376984
20
91.629334
11
122.367000
21
94.285200
0
LINE
8
Layer 1
10
122.367000
20
94.285200
11
119.344875
21
97.864317
0
LINE
8
Layer 1
10
119.344875
20
97.864317
11
116.136000
21
101.300287
0
LINE
8
Layer 1
10
116.136000
20
101.300287
11
109.410000
21
107.850000
0
LINE
8
Layer 1
10
109.410000
20
107.850000
11
103.638673
21
113.138594
0
LINE
8
Layer 1
10
103.638673
20
113.138594
11
97.792413
21
118.341500
0
LINE
8
Layer 1
10
97.792413
20
118.341500
11
86.173400
21
128.827000
0
LINE
8
Layer 1
10
86.173400
20
128.827000
11
77.014275
21
137.687500
0
LINE
8
Layer 1
10
77.014275
20
137.687500
11
72.555584
21
142.254719
0
LINE
8
Layer 1
10
72.555584
20
142.254719
11
68.222500
21
146.911000
0
LINE
8
Layer 1
10
68.222500
20
146.911000
11
63.202000
21
152.788000
0
LINE
8
Layer 1
10
63.202000
20
152.788000
11
64.259048
21
150.916734
0
LINE
8
Layer 1
10
64.259048
20
150.916734
11
65.552563
21
149.052125
0
LINE
8
Layer 1
10
65.552563
20
149.052125
11
68.296800
21
145.545000
0
LINE
8
Layer 1
10
68.296800
20
145.545000
11
71.680186
21
141.462578
0
LINE
8
Layer 1
10
71.680186
20
141.462578
11
75.210788
21
137.536625
0
LINE
8
Layer 1
10
75.210788
20
137.536625
11
82.584600
21
129.952000
0
LINE
8
Layer 1
10
82.584600
20
129.952000
11
90.713844
21
122.052537
0
LINE
8
Layer 1
10
90.713844
20
122.052537
11
98.958100
21
114.268800
0
LINE
8
Layer 1
10
98.958100
20
114.268800
11
107.158706
21
106.442763
0
LINE
8
Layer 1
10
107.158706
20
106.442763
11
115.157000
21
98.416400
0
LINE
8
Layer 1
10
115.157000
20
98.416400
11
113.176319
21
99.320561
0
LINE
8
Layer 1
10
113.176319
20
99.320561
11
111.124992
21
100.039200
0
LINE
8
Layer 1
10
111.124992
20
100.039200
11
106.871688
21
101.024050
0
LINE
8
Layer 1
10
106.871688
20
101.024050
11
102.519664
21
101.579225
0
LINE
8
Layer 1
10
102.519664
20
101.579225
11
98.191500
21
101.913000
0
LINE
8
Layer 1
10
98.191500
20
101.913000
11
92.270694
21
102.424334
0
LINE
8
Layer 1
10
92.270694
20
102.424334
11
86.818173
21
103.154609
0
LINE
8
Layer 1
10
86.818173
20
103.154609
11
81.725369
21
104.168361
0
LINE
8
Layer 1
10
81.725369
20
104.168361
11
76.883713
21
105.530125
0
LINE
8
Layer 1
10
76.883713
20
105.530125
11
72.184636
21
107.304436
0
LINE
8
Layer 1
10
72.184636
20
107.304436
11
67.519570
21
109.555828
0
LINE
8
Layer 1
10
67.519570
20
109.555828
11
62.779948
21
112.348838
0
LINE
8
Layer 1
10
62.779948
20
112.348838
11
57.857200
21
115.748000
0
LINE
8
Layer 1
10
57.857200
20
115.748000
11
54.459100
21
118.588000
0
LINE
8
Layer 1
10
54.459100
20
118.588000
11
52.856800
21
120.069000
0
LINE
8
Layer 1
10
52.856800
20
120.069000
11
53.588791
21
119.030094
0
LINE
8
Layer 1
10
53.588791
20
119.030094
11
55.181725
21
117.429250
0
LINE
8
Layer 1
10
55.181725
20
117.429250
11
58.132300
21
114.761000
0
LINE
8
Layer 1
10
58.132300
20
114.761000
11
60.909641
21
112.471000
0
LINE
8
Layer 1
10
60.909641
20
112.471000
11
63.764944
21
110.362313
0
LINE
8
Layer 1
10
63.764944
20
110.362313
11
66.705869
21
108.438781
0
LINE
8
Layer 1
10
66.705869
20
108.438781
11
69.740075
21
106.704250
0
LINE
8
Layer 1
10
69.740075
20
106.704250
11
72.875222
21
105.162563
0
LINE
8
Layer 1
10
72.875222
20
105.162563
11
76.118969
21
103.817563
0
LINE
8
Layer 1
10
76.118969
20
103.817563
11
79.478975
21
102.673094
0
LINE
8
Layer 1
10
79.478975
20
102.673094
11
82.962900
21
101.733000
0
LINE
8
Layer 1
10
82.962900
20
101.733000
11
86.826394
21
100.959913
0
LINE
8
Layer 1
10
86.826394
20
100.959913
11
90.707550
21
100.402300
0
LINE
8
Layer 1
10
90.707550
20
100.402300
11
98.527800
21
99.604400
0
LINE
8
Layer 1
10
98.527800
20
99.604400
11
104.980978
21
98.854161
0
LINE
8
Layer 1
10
104.980978
20
98.854161
11
107.961568
21
98.296892
0
LINE
8
Layer 1
10
107.961568
20
98.296892
11
110.807475
21
97.522137
0
LINE
8
Layer 1
10
110.807475
20
97.522137
11
113.540685
21
96.457860
0
LINE
8
Layer 1
10
113.540685
20
96.457860
11
116.183184
21
95.032020
0
LINE
8
Layer 1
10
116.183184
20
95.032020
11
118.756961
21
93.172580
0
LINE
8
Layer 1
10
118.756961
20
93.172580
11
121.284000
21
90.807500
0
LINE
8
Layer 1
10
121.284000
20
90.807500
11
124.525031
21
86.990627
0
LINE
8
Layer 1
10
124.525031
20
86.990627
11
127.113750
21
83.126137
0
LINE
8
Layer 1
10
127.113750
20
83.126137
11
129.330844
21
79.040605
0
LINE
8
Layer 1
10
129.330844
20
79.040605
11
131.457000
21
74.560600
0
LINE
8
Layer 1
10
131.457000
20
74.560600
11
132.436375
21
72.561550
0
LINE
8
Layer 1
10
132.436375
20
72.561550
11
132.872672
21
71.522959
0
LINE
8
Layer 1
10
132.872672
20
71.522959
11
133.157000
21
70.483600
0
LINE
8
Layer 1
10
133.157000
20
70.483600
11
133.289797
21
69.110650
0
LINE
8
Layer 1
10
133.289797
20
69.110650
11
133.284875
21
67.652650
0
LINE
8
Layer 1
10
133.284875
20
67.652650
11
133.160000
21
64.797400
0
LINE
8
Layer 1
10
133.160000
20
64.797400
11
132.945000
21
53.960700
0
LINE
8
Layer 1
10
132.945000
20
53.960700
11
130.627000
21
57.260000
0
LINE
8
Layer 1
10
130.627000
20
57.260000
11
128.562385
21
59.847574
0
LINE
8
Layer 1
10
128.562385
20
59.847574
11
126.356453
21
62.294628
0
LINE
8
Layer 1
10
126.356453
20
62.294628
11
124.010576
21
64.588725
0
LINE
8
Layer 1
10
124.010576
20
64.588725
11
121.526125
21
66.717425
0
LINE
8
Layer 1
10
121.526125
20
66.717425
11
118.904471
21
68.668291
0
LINE
8
Layer 1
10
118.904471
20
68.668291
11
116.146984
21
70.428884
0
LINE
8
Layer 1
10
116.146984
20
70.428884
11
113.255037
21
71.986767
0
LINE
8
Layer 1
10
113.255037
20
71.986767
11
110.230000
21
73.329500
0
LINE
8
Layer 1
10
110.230000
20
73.329500
11
106.716250
21
74.567600
0
LINE
8
Layer 1
10
106.716250
20
74.567600
11
103.087000
21
75.384500
0
LINE
8
Layer 1
10
103.087000
20
75.384500
11
103.856891
21
74.972478
0
LINE
8
Layer 1
10
103.856891
20
74.972478
11
104.820375
21
74.610125
0
LINE
8
Layer 1
10
104.820375
20
74.610125
11
106.703000
21
73.965800
0
LINE
8
Layer 1
10
106.703000
20
73.965800
11
111.432000
21
71.836900
0
LINE
8
Layer 1
10
111.432000
20
71.836900
11
114.803068
21
69.970730
0
LINE
8
Layer 1
10
114.803068
20
69.970730
11
117.959859
21
67.844717
0
LINE
8
Layer 1
10
117.959859
20
67.844717
11
120.908877
21
65.479217
0
LINE
8
Layer 1
10
120.908877
20
65.479217
11
123.656625
21
62.894588
0
LINE
8
Layer 1
10
123.656625
20
62.894588
11
126.209607
21
60.111184
0
LINE
8
Layer 1
10
126.209607
20
60.111184
11
128.574328
21
57.149364
0
LINE
8
Layer 1
10
128.574328
20
57.149364
11
130.757291
21
54.029484
0
LINE
8
Layer 1
10
130.757291
20
54.029484
11
132.765000
21
50.771900
0
LINE
8
Layer 1
10
132.765000
20
50.771900
11
132.602375
21
43.801488
0
LINE
8
Layer 1
10
132.602375
20
43.801488
11
132.157000
21
36.848700
0
LINE
8
Layer 1
10
132.157000
20
36.848700
11
130.496875
21
39.543787
0
LINE
8
Layer 1
10
130.496875
20
39.543787
11
128.659000
21
42.124500
0
LINE
8
Layer 1
10
128.659000
20
42.124500
11
125.848693
21
45.345727
0
LINE
8
Layer 1
10
125.848693
20
45.345727
11
122.767109
21
48.302347
0
LINE
8
Layer 1
10
122.767109
20
48.302347
11
119.448502
21
50.999031
0
LINE
8
Layer 1
10
119.448502
20
50.999031
11
115.927125
21
53.440450
0
LINE
8
Layer 1
10
115.927125
20
53.440450
11
112.237232
21
55.631275
0
LINE
8
Layer 1
10
112.237232
20
55.631275
11
108.413078
21
57.576178
0
LINE
8
Layer 1
10
108.413078
20
57.576178
11
104.488916
21
59.279829
0
LINE
8
Layer 1
10
104.488916
20
59.279829
11
100.499000
21
60.746900
0
LINE
8
Layer 1
10
100.499000
20
60.746900
11
98.326937
21
61.614187
0
LINE
8
Layer 1
10
98.326937
20
61.614187
11
97.178914
21
62.041086
0
LINE
8
Layer 1
10
97.178914
20
62.041086
11
96.196800
21
62.278600
0
LINE
8
Layer 1
10
96.196800
20
62.278600
11
97.729583
21
61.413611
0
LINE
8
Layer 1
10
97.729583
20
61.413611
11
100.723263
21
59.977113
0
LINE
8
Layer 1
10
100.723263
20
59.977113
11
105.968000
21
57.513700
0
LINE
8
Layer 1
10
105.968000
20
57.513700
11
110.904922
21
54.806394
0
LINE
8
Layer 1
10
110.904922
20
54.806394
11
115.718375
21
51.751125
0
LINE
8
Layer 1
10
115.718375
20
51.751125
11
120.239891
21
48.298769
0
LINE
8
Layer 1
10
120.239891
20
48.298769
11
122.338525
21
46.408331
0
LINE
8
Layer 1
10
122.338525
20
46.408331
11
124.301000
21
44.400200
0
LINE
8
Layer 1
10
124.301000
20
44.400200
11
126.259031
21
42.092153
0
LINE
8
Layer 1
10
126.259031
20
42.092153
11
128.556250
21
39.047850
0
LINE
8
Layer 1
10
128.556250
20
39.047850
11
130.559094
21
35.900797
0
LINE
8
Layer 1
10
130.559094
20
35.900797
11
131.252137
21
34.486710
0
LINE
8
Layer 1
10
131.252137
20
34.486710
11
131.634000
21
33.284500
0
LINE
8
Layer 1
10
131.634000
20
33.284500
11
131.781266
21
31.619212
0
LINE
8
Layer 1
10
131.781266
20
31.619212
11
131.736625
21
29.736350
0
LINE
8
Layer 1
10
131.736625
20
29.736350
11
131.492000
21
26.118300
0
LINE
8
Layer 1
10
131.492000
20
26.118300
11
129.802500
21
29.169937
0
LINE
8
Layer 1
10
129.802500
20
29.169937
11
127.750000
21
31.987800
0
LINE
8
Layer 1
10
127.750000
20
31.987800
11
125.997068
21
33.856924
0
LINE
8
Layer 1
10
125.997068
20
33.856924
11
124.087795
21
35.574748
0
LINE
8
Layer 1
10
124.087795
20
35.574748
11
122.043028
21
37.162013
0
LINE
8
Layer 1
10
122.043028
20
37.162013
11
119.883613
21
38.639459
0
LINE
8
Layer 1
10
119.883613
20
38.639459
11
115.304223
21
41.347860
0
LINE
8
Layer 1
10
115.304223
20
41.347860
11
110.516400
21
43.865875
0
LINE
8
Layer 1
10
110.516400
20
43.865875
11
105.686914
21
46.359431
0
LINE
8
Layer 1
10
105.686914
20
46.359431
11
100.982538
21
48.994453
0
LINE
8
Layer 1
10
100.982538
20
48.994453
11
96.570042
21
51.936868
0
LINE
8
Layer 1
10
96.570042
20
51.936868
11
94.525366
21
53.575199
0
LINE
8
Layer 1
10
94.525366
20
53.575199
11
92.616200
21
55.352600
0
LINE
8
Layer 1
10
92.616200
20
55.352600
11
90.818847
21
57.378247
0
LINE
8
Layer 1
10
90.818847
20
57.378247
11
89.210100
21
59.740700
0
LINE
8
Layer 1
10
89.210100
20
59.740700
11
88.563858
21
61.010946
0
LINE
8
Layer 1
10
88.563858
20
61.010946
11
88.069653
21
62.320653
0
LINE
8
Layer 1
10
88.069653
20
62.320653
11
87.762446
21
63.654909
0
LINE
8
Layer 1
10
87.762446
20
63.654909
11
87.677200
21
64.998800
0
LINE
8
Layer 1
10
87.677200
20
64.998800
11
87.979725
21
66.506700
0
LINE
8
Layer 1
10
87.979725
20
66.506700
11
88.341316
21
67.171288
0
LINE
8
Layer 1
10
88.341316
20
67.171288
11
88.858100
21
67.762600
0
LINE
8
Layer 1
10
88.858100
20
67.762600
11
89.910111
21
68.509465
0
LINE
8
Layer 1
10
89.910111
20
68.509465
11
91.139278
21
69.029848
0
LINE
8
Layer 1
10
91.139278
20
69.029848
11
92.495819
21
69.360742
0
LINE
8
Layer 1
10
92.495819
20
69.360742
11
93.929950
21
69.539138
0
LINE
8
Layer 1
10
93.929950
20
69.539138
11
96.831847
21
69.586408
0
LINE
8
Layer 1
10
96.831847
20
69.586408
11
99.446700
21
69.467600
0
LINE
8
Layer 1
10
99.446700
20
69.467600
11
100.327963
21
70.168588
0
LINE
8
Layer 1
10
100.327963
20
70.168588
11
100.638370
21
70.597114
0
LINE
8
Layer 1
10
100.638370
20
70.597114
11
100.852000
21
71.153000
0
LINE
8
Layer 1
10
100.852000
20
71.153000
11
100.882000
21
72.277925
0
LINE
8
Layer 1
10
100.882000
20
72.277925
11
100.591000
21
73.373900
0
LINE
8
Layer 1
10
100.591000
20
73.373900
11
99.683449
21
75.107222
0
LINE
8
Layer 1
10
99.683449
20
75.107222
11
98.340158
21
76.640273
0
LINE
8
Layer 1
10
98.340158
20
76.640273
11
96.664797
21
77.992160
0
LINE
8
Layer 1
10
96.664797
20
77.992160
11
94.761038
21
79.181987
0
LINE
8
Layer 1
10
94.761038
20
79.181987
11
90.682998
21
81.151883
0
LINE
8
Layer 1
10
90.682998
20
81.151883
11
86.935400
21
82.702800
0
LINE
8
Layer 1
10
86.935400
20
82.702800
11
78.115000
21
86.368400
0
LINE
8
Layer 1
10
78.115000
20
86.368400
11
72.652900
21
88.977700
0
LINE
8
Layer 1
10
72.652900
20
88.977700
11
67.419200
21
92.019100
0
LINE
8
Layer 1
10
67.419200
20
92.019100
11
65.015261
21
93.640227
0
LINE
8
Layer 1
10
65.015261
20
93.640227
11
62.699103
21
95.392823
0
LINE
8
Layer 1
10
62.699103
20
95.392823
11
60.482025
21
97.272599
0
LINE
8
Layer 1
10
60.482025
20
97.272599
11
58.375325
21
99.275262
0
LINE
8
Layer 1
10
58.375325
20
99.275262
11
56.390304
21
101.396525
0
LINE
8
Layer 1
10
56.390304
20
101.396525
11
54.538259
21
103.632095
0
LINE
8
Layer 1
10
54.538259
20
103.632095
11
52.830492
21
105.977684
0
LINE
8
Layer 1
10
52.830492
20
105.977684
11
51.278300
21
108.429000
0
LINE
8
Layer 1
10
51.278300
20
108.429000
11
49.238155
21
112.376750
0
LINE
8
Layer 1
10
49.238155
20
112.376750
11
48.267900
21
114.674156
0
LINE
8
Layer 1
10
48.267900
20
114.674156
11
47.419737
21
117.082000
0
LINE
8
Layer 1
10
47.419737
20
117.082000
11
46.760326
21
119.521344
0
LINE
8
Layer 1
10
46.760326
20
119.521344
11
46.356327
21
121.913250
0
LINE
8
Layer 1
10
46.356327
20
121.913250
11
46.274398
21
124.178781
0
LINE
8
Layer 1
10
46.274398
20
124.178781
11
46.581200
21
126.239000
0
LINE
8
Layer 1
10
46.581200
20
126.239000
11
46.911877
21
127.190420
0
LINE
8
Layer 1
10
46.911877
20
127.190420
11
47.325045
21
127.948047
0
LINE
8
Layer 1
10
47.325045
20
127.948047
11
48.379438
21
129.046125
0
LINE
8
Layer 1
10
48.379438
20
129.046125
11
49.705536
21
129.861641
0
LINE
8
Layer 1
10
49.705536
20
129.861641
11
51.264500
21
130.723000
0
LINE
8
Layer 1
10
51.264500
20
130.723000
11
51.892872
21
131.213453
0
LINE
8
Layer 1
10
51.892872
20
131.213453
11
52.334700
21
131.825125
0
LINE
8
Layer 1
10
52.334700
20
131.825125
11
52.560528
21
132.544234
0
LINE
8
Layer 1
10
52.560528
20
132.544234
11
52.540900
21
133.357000
0
LINE
8
Layer 1
10
52.540900
20
133.357000
11
52.101734
21
134.764422
0
LINE
8
Layer 1
10
52.101734
20
134.764422
11
51.361500
21
136.427875
0
LINE
8
Layer 1
10
51.361500
20
136.427875
11
49.881800
21
139.570000
0
LINE
8
Layer 1
10
49.881800
20
139.570000
11
49.047255
21
141.861523
0
LINE
8
Layer 1
10
49.047255
20
141.861523
11
48.303658
21
144.382312
0
LINE
8
Layer 1
10
48.303658
20
144.382312
11
47.682191
21
147.060320
0
LINE
8
Layer 1
10
47.682191
20
147.060320
11
47.214038
21
149.823500
0
LINE
8
Layer 1
10
47.214038
20
149.823500
11
46.930379
21
152.599805
0
LINE
8
Layer 1
10
46.930379
20
152.599805
11
46.862398
21
155.317187
0
LINE
8
Layer 1
10
46.862398
20
155.317187
11
47.041278
21
157.903602
0
LINE
8
Layer 1
10
47.041278
20
157.903602
11
47.498200
21
160.287000
0
LINE
8
Layer 1
10
47.498200
20
160.287000
11
48.103588
21
161.981797
0
LINE
8
Layer 1
10
48.103588
20
161.981797
11
48.979575
21
163.499125
0
LINE
8
Layer 1
10
48.979575
20
163.499125
11
50.142850
21
164.800641
0
LINE
8
Layer 1
10
50.142850
20
164.800641
11
51.610100
21
165.848000
0
LINE
8
Layer 1
10
51.610100
20
165.848000
11
53.178791
21
166.525469
0
LINE
8
Layer 1
10
53.178791
20
166.525469
11
54.836975
21
166.914000
0
LINE
8
Layer 1
10
54.836975
20
166.914000
11
56.541847
21
167.074531
0
LINE
8
Layer 1
10
56.541847
20
167.074531
11
58.250600
21
167.068000
0
LINE
8
Layer 1
10
58.250600
20
167.068000
11
60.935801
21
166.788268
0
LINE
8
Layer 1
10
60.935801
20
166.788268
11
63.530236
21
166.207328
0
LINE
8
Layer 1
10
63.530236
20
166.207328
11
66.045206
21
165.373943
0
LINE
8
Layer 1
10
66.045206
20
165.373943
11
68.492013
21
164.336875
0
LINE
8
Layer 1
10
68.492013
20
164.336875
11
73.226333
21
161.846734
0
LINE
8
Layer 1
10
73.226333
20
161.846734
11
77.823600
21
159.127000
0
LINE
8
Layer 1
10
77.823600
20
159.127000
11
80.824250
21
157.359625
0
LINE
8
Layer 1
10
80.824250
20
157.359625
11
82.390312
21
156.589984
0
LINE
8
Layer 1
10
82.390312
20
156.589984
11
84.017500
21
156.013000
0
LINE
8
Layer 1
10
84.017500
20
156.013000
11
85.716363
21
155.775375
0
LINE
8
Layer 1
10
85.716363
20
155.775375
11
86.542323
21
155.901766
0
LINE
8
Layer 1
10
86.542323
20
155.901766
11
87.343300
21
156.257000
0
LINE
8
Layer 1
10
87.343300
20
156.257000
11
88.151583
21
156.907531
0
LINE
8
Layer 1
10
88.151583
20
156.907531
11
88.800387
21
157.729250
0
LINE
8
Layer 1
10
88.800387
20
157.729250
11
89.279073
21
158.665344
0
LINE
8
Layer 1
10
89.279073
20
158.665344
11
89.577000
21
159.659000
0
LINE
8
Layer 1
10
89.577000
20
159.659000
11
89.698246
21
160.690134
0
LINE
8
Layer 1
10
89.698246
20
160.690134
11
89.660859
21
161.754086
0
LINE
8
Layer 1
10
89.660859
20
161.754086
11
89.174400
21
163.953750
0
LINE
8
Layer 1
10
89.174400
20
163.953750
11
88.246041
21
166.204602
0
LINE
8
Layer 1
10
88.246041
20
166.204602
11
87.004200
21
168.453250
0
LINE
8
Layer 1
10
87.004200
20
168.453250
11
84.093750
21
172.730375
0
LINE
8
Layer 1
10
84.093750
20
172.730375
11
81.470400
21
176.358000
0
LINE
8
Layer 1
10
81.470400
20
176.358000
11
79.550513
21
179.323119
0
LINE
8
Layer 1
10
79.550513
20
179.323119
11
77.733887
21
182.447016
0
LINE
8
Layer 1
10
77.733887
20
182.447016
11
76.096549
21
185.705748
0
LINE
8
Layer 1
10
76.096549
20
185.705748
11
74.714525
21
189.075375
0
LINE
8
Layer 1
10
74.714525
20
189.075375
11
73.663841
21
192.531955
0
LINE
8
Layer 1
10
73.663841
20
192.531955
11
73.020525
21
196.051547
0
LINE
8
Layer 1
10
73.020525
20
196.051547
11
72.860602
21
199.610209
0
LINE
8
Layer 1
10
72.860602
20
199.610209
11
72.985672
21
201.396710
0
LINE
8
Layer 1
10
72.985672
20
201.396710
11
73.260100
21
203.184000
0
LINE
8
Layer 1
10
73.260100
20
203.184000
11
73.805206
21
205.339187
0
LINE
8
Layer 1
10
73.805206
20
205.339187
11
74.642100
21
207.400250
0
LINE
8
Layer 1
10
74.642100
20
207.400250
11
75.849569
21
209.238187
0
LINE
8
Layer 1
10
75.849569
20
209.238187
11
76.616890
21
210.033172
0
LINE
8
Layer 1
10
76.616890
20
210.033172
11
77.506400
21
210.724000
0
LINE
8
Layer 1
10
77.506400
20
210.724000
11
78.830867
21
211.415752
0
LINE
8
Layer 1
10
78.830867
20
211.415752
11
80.246039
21
211.826266
0
LINE
8
Layer 1
10
80.246039
20
211.826266
11
81.721569
21
211.987428
0
LINE
8
Layer 1
10
81.721569
20
211.987428
11
83.227113
21
211.931125
0
LINE
8
Layer 1
10
83.227113
20
211.931125
11
84.732323
21
211.689244
0
LINE
8
Layer 1
10
84.732323
20
211.689244
11
86.206855
21
211.293672
0
LINE
8
Layer 1
10
86.206855
20
211.293672
11
88.942500
21
210.169000
0
LINE
8
Layer 1
10
88.942500
20
210.169000
11
92.224087
21
208.331375
0
LINE
8
Layer 1
10
92.224087
20
208.331375
11
93.925814
21
207.515547
0
LINE
8
Layer 1
10
93.925814
20
207.515547
11
95.695200
21
206.991000
0
LINE
8
Layer 1
10
95.695200
20
206.991000
11
97.183975
21
206.957375
0
LINE
8
Layer 1
10
97.183975
20
206.957375
11
97.905628
21
207.146391
0
LINE
8
Layer 1
10
97.905628
20
207.146391
11
98.552900
21
207.508000
0
LINE
8
Layer 1
10
98.552900
20
207.508000
11
99.341659
21
208.449506
0
LINE
8
Layer 1
10
99.341659
20
208.449506
11
99.829795
21
209.736797
0
LINE
8
Layer 1
10
99.829795
20
209.736797
11
100.072337
21
211.267908
0
LINE
8
Layer 1
10
100.072337
20
211.267908
11
100.124313
21
212.940875
0
LINE
8
Layer 1
10
100.124313
20
212.940875
11
99.876673
21
216.304516
0
LINE
8
Layer 1
10
99.876673
20
216.304516
11
99.527100
21
219.012000
0
LINE
8
Layer 1
10
99.527100
20
219.012000
11
98.888400
21
224.992000
0
LINE
8
Layer 1
10
98.888400
20
224.992000
11
98.774163
21
229.026000
0
LINE
8
Layer 1
10
98.774163
20
229.026000
11
98.880877
21
231.050687
0
LINE
8
Layer 1
10
98.880877
20
231.050687
11
99.126800
21
233.039000
0
LINE
8
Layer 1
10
99.126800
20
233.039000
11
99.681534
21
235.468547
0
LINE
8
Layer 1
10
99.681534
20
235.468547
11
100.585525
21
237.772375
0
LINE
8
Layer 1
10
100.585525
20
237.772375
11
101.911203
21
239.833016
0
LINE
8
Layer 1
10
101.911203
20
239.833016
11
102.754810
21
240.735432
0
LINE
8
Layer 1
10
102.754810
20
240.735432
11
103.731000
21
241.533000
0
LINE
8
Layer 1
10
103.731000
20
241.533000
11
105.947266
21
242.775203
0
LINE
8
Layer 1
10
105.947266
20
242.775203
11
108.294125
21
243.494375
0
LINE
8
Layer 1
10
108.294125
20
243.494375
11
110.742422
21
243.726609
0
LINE
8
Layer 1
10
110.742422
20
243.726609
11
113.263000
21
243.508000
0
LINE
8
Layer 1
10
113.263000
20
243.508000
11
114.904875
21
247.140875
0
LINE
8
Layer 1
10
114.904875
20
247.140875
11
116.879000
21
250.605000
0
LINE
8
Layer 1
10
116.879000
20
250.605000
11
118.259498
21
252.595965
0
LINE
8
Layer 1
10
118.259498
20
252.595965
11
119.861047
21
254.609406
0
LINE
8
Layer 1
10
119.861047
20
254.609406
11
121.655979
21
256.577520
0
LINE
8
Layer 1
10
121.655979
20
256.577520
11
123.616625
21
258.432500
0
LINE
8
Layer 1
10
123.616625
20
258.432500
11
125.715318
21
260.106543
0
LINE
8
Layer 1
10
125.715318
20
260.106543
11
127.924391
21
261.531844
0
LINE
8
Layer 1
10
127.924391
20
261.531844
11
130.216174
21
262.640598
0
LINE
8
Layer 1
10
130.216174
20
262.640598
11
132.563000
21
263.365000
0
LINE
8
Layer 1
10
132.563000
20
263.365000
11
132.563000
21
263.365000
 0 
ENDSEC
 0 
EOF