999
"DXF R12 Output" (www.mydxf.blogspot.com)
 0 
SECTION
 2 
HEADER
 9 
$ACADVER
 1 
AC1009
 9 
$EXTMIN
 10 
 0 
 20 
 0 
 9 
$EXTMAX
 10 
 8.5 
 20 
 11 
 0 
ENDSEC
 0 
SECTION
 2 
ENTITIES
0
LINE
8
Layer 1
10
201.478000
20
136.041000
11
270.933000
21
270.933000
0
LINE
8
Layer 1
10
270.933000
20
270.933000
11
270.933000
21
0.000008
0
LINE
8
Layer 1
10
270.933000
20
0.000008
11
0.000000
21
0.000008
0
LINE
8
Layer 1
10
0.000000
20
0.000008
11
201.478000
21
136.041000
0
LINE
8
Layer 1
10
134.873000
20
265.257000
11
135.437500
21
265.262750
0
LINE
8
Layer 1
10
135.437500
20
265.262750
11
135.987000
21
265.141000
0
LINE
8
Layer 1
10
135.987000
20
265.141000
11
137.640203
21
264.263375
0
LINE
8
Layer 1
10
137.640203
20
264.263375
11
139.738625
21
262.894500
0
LINE
8
Layer 1
10
139.738625
20
262.894500
11
143.476000
21
260.246000
0
LINE
8
Layer 1
10
143.476000
20
260.246000
11
146.659625
21
257.608000
0
LINE
8
Layer 1
10
146.659625
20
257.608000
11
149.541000
21
254.640000
0
LINE
8
Layer 1
10
149.541000
20
254.640000
11
151.585697
21
252.223004
0
LINE
8
Layer 1
10
151.585697
20
252.223004
11
153.424953
21
249.724844
0
LINE
8
Layer 1
10
153.424953
20
249.724844
11
155.060514
21
247.140012
0
LINE
8
Layer 1
10
155.060514
20
247.140012
11
156.494125
21
244.463000
0
LINE
8
Layer 1
10
156.494125
20
244.463000
11
157.727533
21
241.688301
0
LINE
8
Layer 1
10
157.727533
20
241.688301
11
158.762484
21
238.810406
0
LINE
8
Layer 1
10
158.762484
20
238.810406
11
159.600725
21
235.823809
0
LINE
8
Layer 1
10
159.600725
20
235.823809
11
160.244000
21
232.723000
0
LINE
8
Layer 1
10
160.244000
20
232.723000
11
160.689297
21
229.581672
0
LINE
8
Layer 1
10
160.689297
20
229.581672
11
161.018625
21
226.425625
0
LINE
8
Layer 1
10
161.018625
20
226.425625
11
161.346641
21
223.269766
0
LINE
8
Layer 1
10
161.346641
20
223.269766
11
161.788000
21
220.129000
0
LINE
8
Layer 1
10
161.788000
20
220.129000
11
162.105984
21
218.582844
0
LINE
8
Layer 1
10
162.105984
20
218.582844
11
162.607625
21
217.030500
0
LINE
8
Layer 1
10
162.607625
20
217.030500
11
163.381703
21
215.628156
0
LINE
8
Layer 1
10
163.381703
20
215.628156
11
164.517000
21
214.532000
0
LINE
8
Layer 1
10
164.517000
20
214.532000
11
165.099540
21
214.233599
0
LINE
8
Layer 1
10
165.099540
20
214.233599
11
165.697463
21
214.087809
0
LINE
8
Layer 1
10
165.697463
20
214.087809
11
166.924016
21
214.192031
0
LINE
8
Layer 1
10
166.924016
20
214.192031
11
168.165779
21
214.720613
0
LINE
8
Layer 1
10
168.165779
20
214.720613
11
169.391875
21
215.549500
0
LINE
8
Layer 1
10
169.391875
20
215.549500
11
171.673547
21
217.611969
0
LINE
8
Layer 1
10
171.673547
20
217.611969
11
173.522000
21
219.387000
0
LINE
8
Layer 1
10
173.522000
20
219.387000
11
176.003875
21
221.176750
0
LINE
8
Layer 1
10
176.003875
20
221.176750
11
177.367391
21
221.858344
0
LINE
8
Layer 1
10
177.367391
20
221.858344
11
178.827000
21
222.323000
0
LINE
8
Layer 1
10
178.827000
20
222.323000
11
179.284000
21
222.418000
0
LINE
8
Layer 1
10
179.284000
20
222.418000
11
179.746000
21
222.491000
0
LINE
8
Layer 1
10
179.746000
20
222.491000
11
180.211000
21
222.540000
0
LINE
8
Layer 1
10
180.211000
20
222.540000
11
180.677000
21
222.567000
0
LINE
8
Layer 1
10
180.677000
20
222.567000
11
181.145000
21
222.570000
0
LINE
8
Layer 1
10
181.145000
20
222.570000
11
181.612000
21
222.550000
0
LINE
8
Layer 1
10
181.612000
20
222.550000
11
182.077000
21
222.507000
0
LINE
8
Layer 1
10
182.077000
20
222.507000
11
182.540000
21
222.442000
0
LINE
8
Layer 1
10
182.540000
20
222.442000
11
182.999000
21
222.353000
0
LINE
8
Layer 1
10
182.999000
20
222.353000
11
183.453000
21
222.242000
0
LINE
8
Layer 1
10
183.453000
20
222.242000
11
183.901000
21
222.108000
0
LINE
8
Layer 1
10
183.901000
20
222.108000
11
184.341000
21
221.953000
0
LINE
8
Layer 1
10
184.341000
20
221.953000
11
184.774000
21
221.776000
0
LINE
8
Layer 1
10
184.774000
20
221.776000
11
185.197000
21
221.578000
0
LINE
8
Layer 1
10
185.197000
20
221.578000
11
185.610000
21
221.359000
0
LINE
8
Layer 1
10
185.610000
20
221.359000
11
186.012000
21
221.120000
0
LINE
8
Layer 1
10
186.012000
20
221.120000
11
186.986121
21
220.409236
0
LINE
8
Layer 1
10
186.986121
20
220.409236
11
187.822781
21
219.619266
0
LINE
8
Layer 1
10
187.822781
20
219.619266
11
189.138000
21
217.823125
0
LINE
8
Layer 1
10
189.138000
20
217.823125
11
190.066219
21
215.774422
0
LINE
8
Layer 1
10
190.066219
20
215.774422
11
190.716000
21
213.516000
0
LINE
8
Layer 1
10
190.716000
20
213.516000
11
191.157254
21
211.049148
0
LINE
8
Layer 1
10
191.157254
20
211.049148
11
191.352344
21
208.562375
0
LINE
8
Layer 1
10
191.352344
20
208.562375
11
191.320512
21
206.068852
0
LINE
8
Layer 1
10
191.320512
20
206.068852
11
191.081000
21
203.581750
0
LINE
8
Layer 1
10
191.081000
20
203.581750
11
190.653051
21
201.114242
0
LINE
8
Layer 1
10
190.653051
20
201.114242
11
190.055906
21
198.679500
0
LINE
8
Layer 1
10
190.055906
20
198.679500
11
188.431000
21
193.961000
0
LINE
8
Layer 1
10
188.431000
20
193.961000
11
186.635953
21
190.121969
0
LINE
8
Layer 1
10
186.635953
20
190.121969
11
184.661375
21
185.895750
0
LINE
8
Layer 1
10
184.661375
20
185.895750
11
183.848432
21
183.730668
0
LINE
8
Layer 1
10
183.848432
20
183.730668
11
183.280609
21
181.580656
0
LINE
8
Layer 1
10
183.280609
20
181.580656
11
183.054576
21
179.483004
0
LINE
8
Layer 1
10
183.054576
20
179.483004
11
183.267000
21
177.475000
0
LINE
8
Layer 1
10
183.267000
20
177.475000
11
183.607375
21
176.407125
0
LINE
8
Layer 1
10
183.607375
20
176.407125
11
184.123250
21
175.387250
0
LINE
8
Layer 1
10
184.123250
20
175.387250
11
184.819500
21
174.491500
0
LINE
8
Layer 1
10
184.819500
20
174.491500
11
185.701000
21
173.796000
0
LINE
8
Layer 1
10
185.701000
20
173.796000
11
186.850078
21
173.357750
0
LINE
8
Layer 1
10
186.850078
20
173.357750
11
188.056625
21
173.276500
0
LINE
8
Layer 1
10
188.056625
20
173.276500
11
189.267109
21
173.474250
0
LINE
8
Layer 1
10
189.267109
20
173.474250
11
190.428000
21
173.873000
0
LINE
8
Layer 1
10
190.428000
20
173.873000
11
192.624844
21
175.003719
0
LINE
8
Layer 1
10
192.624844
20
175.003719
11
194.694000
21
176.385500
0
LINE
8
Layer 1
10
194.694000
20
176.385500
11
198.645000
21
179.405000
0
LINE
8
Layer 1
10
198.645000
20
179.405000
11
202.982891
21
182.441453
0
LINE
8
Layer 1
10
202.982891
20
182.441453
11
207.549625
21
185.137125
0
LINE
8
Layer 1
10
207.549625
20
185.137125
11
212.346797
21
187.368734
0
LINE
8
Layer 1
10
212.346797
20
187.368734
11
214.832295
21
188.271990
0
LINE
8
Layer 1
10
214.832295
20
188.271990
11
217.376000
21
189.013000
0
LINE
8
Layer 1
10
217.376000
20
189.013000
11
220.417018
21
189.647178
0
LINE
8
Layer 1
10
220.417018
20
189.647178
11
223.714828
21
190.067547
0
LINE
8
Layer 1
10
223.714828
20
190.067547
11
227.172693
21
190.249111
0
LINE
8
Layer 1
10
227.172693
20
190.249111
11
230.693875
21
190.166875
0
LINE
8
Layer 1
10
230.693875
20
190.166875
11
234.181635
21
189.795842
0
LINE
8
Layer 1
10
234.181635
20
189.795842
11
237.539234
21
189.111016
0
LINE
8
Layer 1
10
237.539234
20
189.111016
11
240.669936
21
188.087400
0
LINE
8
Layer 1
10
240.669936
20
188.087400
11
243.477000
21
186.700000
0
LINE
8
Layer 1
10
243.477000
20
186.700000
11
243.634000
21
186.603000
0
LINE
8
Layer 1
10
243.634000
20
186.603000
11
244.031000
21
185.203000
0
LINE
8
Layer 1
10
244.031000
20
185.203000
11
244.505361
21
181.075049
0
LINE
8
Layer 1
10
244.505361
20
181.075049
11
244.456703
21
176.839016
0
LINE
8
Layer 1
10
244.456703
20
176.839016
11
243.929662
21
172.562131
0
LINE
8
Layer 1
10
243.929662
20
172.562131
11
242.968875
21
168.311625
0
LINE
8
Layer 1
10
242.968875
20
168.311625
11
241.618979
21
164.154729
0
LINE
8
Layer 1
10
241.618979
20
164.154729
11
239.924609
21
160.158672
0
LINE
8
Layer 1
10
239.924609
20
160.158672
11
237.930404
21
156.390686
0
LINE
8
Layer 1
10
237.930404
20
156.390686
11
235.681000
21
152.918000
0
LINE
8
Layer 1
10
235.681000
20
152.918000
11
231.820000
21
147.981000
0
LINE
8
Layer 1
10
231.820000
20
147.981000
11
229.919625
21
145.795750
0
LINE
8
Layer 1
10
229.919625
20
145.795750
11
228.143000
21
143.513000
0
LINE
8
Layer 1
10
228.143000
20
143.513000
11
227.521547
21
142.511453
0
LINE
8
Layer 1
10
227.521547
20
142.511453
11
226.949125
21
141.330375
0
LINE
8
Layer 1
10
226.949125
20
141.330375
11
226.588391
21
140.097359
0
LINE
8
Layer 1
10
226.588391
20
140.097359
11
226.602000
21
138.940000
0
LINE
8
Layer 1
10
226.602000
20
138.940000
11
226.955250
21
138.341750
0
LINE
8
Layer 1
10
226.955250
20
138.341750
11
227.592000
21
138.057000
0
LINE
8
Layer 1
10
227.592000
20
138.057000
11
229.117484
21
138.086313
0
LINE
8
Layer 1
10
229.117484
20
138.086313
11
231.041875
21
138.452750
0
LINE
8
Layer 1
10
231.041875
20
138.452750
11
233.043328
21
138.883312
0
LINE
8
Layer 1
10
233.043328
20
138.883312
11
234.800000
21
139.105000
0
LINE
8
Layer 1
10
234.800000
20
139.105000
11
235.513000
21
139.090000
0
LINE
8
Layer 1
10
235.513000
20
139.090000
11
236.223000
21
139.028000
0
LINE
8
Layer 1
10
236.223000
20
139.028000
11
236.928000
21
138.917000
0
LINE
8
Layer 1
10
236.928000
20
138.917000
11
237.623000
21
138.760000
0
LINE
8
Layer 1
10
237.623000
20
138.760000
11
238.306000
21
138.555000
0
LINE
8
Layer 1
10
238.306000
20
138.555000
11
238.975000
21
138.305000
0
LINE
8
Layer 1
10
238.975000
20
138.305000
11
239.624000
21
138.011000
0
LINE
8
Layer 1
10
239.624000
20
138.011000
11
240.252000
21
137.673000
0
LINE
8
Layer 1
10
240.252000
20
137.673000
11
241.510844
21
136.767813
0
LINE
8
Layer 1
10
241.510844
20
136.767813
11
242.544500
21
135.664250
0
LINE
8
Layer 1
10
242.544500
20
135.664250
11
243.331406
21
134.372813
0
LINE
8
Layer 1
10
243.331406
20
134.372813
11
243.850000
21
132.904000
0
LINE
8
Layer 1
10
243.850000
20
132.904000
11
244.116082
21
131.257266
0
LINE
8
Layer 1
10
244.116082
20
131.257266
11
244.149594
21
129.566563
0
LINE
8
Layer 1
10
244.149594
20
129.566563
11
243.980184
21
127.855141
0
LINE
8
Layer 1
10
243.980184
20
127.855141
11
243.637500
21
126.146250
0
LINE
8
Layer 1
10
243.637500
20
126.146250
11
242.550906
21
122.829063
0
LINE
8
Layer 1
10
242.550906
20
122.829063
11
241.127000
21
119.801000
0
LINE
8
Layer 1
10
241.127000
20
119.801000
11
239.873770
21
117.655009
0
LINE
8
Layer 1
10
239.873770
20
117.655009
11
238.462457
21
115.578742
0
LINE
8
Layer 1
10
238.462457
20
115.578742
11
236.906189
21
113.573445
0
LINE
8
Layer 1
10
236.906189
20
113.573445
11
235.218094
21
111.640364
0
LINE
8
Layer 1
10
235.218094
20
111.640364
11
231.498934
21
107.995839
0
LINE
8
Layer 1
10
231.498934
20
107.995839
11
227.410000
21
104.655137
0
LINE
8
Layer 1
10
227.410000
20
104.655137
11
223.056316
21
101.628231
0
LINE
8
Layer 1
10
223.056316
20
101.628231
11
218.542906
21
98.925092
0
LINE
8
Layer 1
10
218.542906
20
98.925092
11
213.974793
21
96.555691
0
LINE
8
Layer 1
10
213.974793
20
96.555691
11
209.457000
21
94.530000
0
LINE
8
Layer 1
10
209.457000
20
94.530000
11
204.817000
21
92.704150
0
LINE
8
Layer 1
10
204.817000
20
92.704150
11
200.113000
21
91.051000
0
LINE
8
Layer 1
10
200.113000
20
91.051000
11
194.994094
21
89.444750
0
LINE
8
Layer 1
10
194.994094
20
89.444750
11
189.026750
21
87.341775
0
LINE
8
Layer 1
10
189.026750
20
87.341775
11
186.141574
21
86.057832
0
LINE
8
Layer 1
10
186.141574
20
86.057832
11
183.544281
21
84.594288
0
LINE
8
Layer 1
10
183.544281
20
84.594288
11
181.401535
21
82.932668
0
LINE
8
Layer 1
10
181.401535
20
82.932668
11
180.552700
21
82.021807
0
LINE
8
Layer 1
10
180.552700
20
82.021807
11
179.880000
21
81.054500
0
LINE
8
Layer 1
10
179.880000
20
81.054500
11
179.430000
21
79.935412
0
LINE
8
Layer 1
10
179.430000
20
79.935412
11
179.369531
21
79.342039
0
LINE
8
Layer 1
10
179.369531
20
79.342039
11
179.457000
21
78.739900
0
LINE
8
Layer 1
10
179.457000
20
78.739900
11
179.961547
21
77.890430
0
LINE
8
Layer 1
10
179.961547
20
77.890430
11
180.842500
21
77.296063
0
LINE
8
Layer 1
10
180.842500
20
77.296063
11
181.996828
21
76.909202
0
LINE
8
Layer 1
10
181.996828
20
76.909202
11
183.321500
21
76.682250
0
LINE
8
Layer 1
10
183.321500
20
76.682250
11
186.069750
21
76.517687
0
LINE
8
Layer 1
10
186.069750
20
76.517687
11
188.263000
21
76.421600
0
LINE
8
Layer 1
10
188.263000
20
76.421600
11
190.843500
21
75.933825
0
LINE
8
Layer 1
10
190.843500
20
75.933825
11
192.087719
21
75.499663
0
LINE
8
Layer 1
10
192.087719
20
75.499663
11
193.247000
21
74.898700
0
LINE
8
Layer 1
10
193.247000
20
74.898700
11
194.205063
21
74.163113
0
LINE
8
Layer 1
10
194.205063
20
74.163113
11
194.969250
21
73.283525
0
LINE
8
Layer 1
10
194.969250
20
73.283525
11
195.531313
21
72.264175
0
LINE
8
Layer 1
10
195.531313
20
72.264175
11
195.883000
21
71.109300
0
LINE
8
Layer 1
10
195.883000
20
71.109300
11
196.045846
21
69.697242
0
LINE
8
Layer 1
10
196.045846
20
69.697242
11
195.980891
21
68.322989
0
LINE
8
Layer 1
10
195.980891
20
68.322989
11
195.715146
21
66.989351
0
LINE
8
Layer 1
10
195.715146
20
66.989351
11
195.275625
21
65.699138
0
LINE
8
Layer 1
10
195.275625
20
65.699138
11
193.983297
21
63.260217
0
LINE
8
Layer 1
10
193.983297
20
63.260217
11
192.320000
21
61.028700
0
LINE
8
Layer 1
10
192.320000
20
61.028700
11
189.424996
21
57.991409
0
LINE
8
Layer 1
10
189.424996
20
57.991409
11
186.152156
21
55.266250
0
LINE
8
Layer 1
10
186.152156
20
55.266250
11
182.574863
21
52.837491
0
LINE
8
Layer 1
10
182.574863
20
52.837491
11
178.766500
21
50.689400
0
LINE
8
Layer 1
10
178.766500
20
50.689400
11
174.800449
21
48.806247
0
LINE
8
Layer 1
10
174.800449
20
48.806247
11
170.750094
21
47.172300
0
LINE
8
Layer 1
10
170.750094
20
47.172300
11
166.688816
21
45.771828
0
LINE
8
Layer 1
10
166.688816
20
45.771828
11
162.690000
21
44.589100
0
LINE
8
Layer 1
10
162.690000
20
44.589100
11
156.021500
21
42.878537
0
LINE
8
Layer 1
10
156.021500
20
42.878537
11
152.732906
21
41.851314
0
LINE
8
Layer 1
10
152.732906
20
41.851314
11
149.584000
21
40.499500
0
LINE
8
Layer 1
10
149.584000
20
40.499500
11
148.774000
21
40.044600
0
LINE
8
Layer 1
10
148.774000
20
40.044600
11
147.994000
21
39.540300
0
LINE
8
Layer 1
10
147.994000
20
39.540300
11
147.247000
21
38.988400
0
LINE
8
Layer 1
10
147.247000
20
38.988400
11
146.536000
21
38.391000
0
LINE
8
Layer 1
10
146.536000
20
38.391000
11
145.863000
21
37.750400
0
LINE
8
Layer 1
10
145.863000
20
37.750400
11
145.232000
21
37.069100
0
LINE
8
Layer 1
10
145.232000
20
37.069100
11
144.644000
21
36.349700
0
LINE
8
Layer 1
10
144.644000
20
36.349700
11
144.102000
21
35.595200
0
LINE
8
Layer 1
10
144.102000
20
35.595200
11
143.322843
21
34.259767
0
LINE
8
Layer 1
10
143.322843
20
34.259767
11
142.715809
21
32.876215
0
LINE
8
Layer 1
10
142.715809
20
32.876215
11
142.266549
21
31.450616
0
LINE
8
Layer 1
10
142.266549
20
31.450616
11
141.960719
21
29.989041
0
LINE
8
Layer 1
10
141.960719
20
29.989041
11
141.721957
21
26.982246
0
LINE
8
Layer 1
10
141.721957
20
26.982246
11
141.884750
21
23.904400
0
LINE
8
Layer 1
10
141.884750
20
23.904400
11
142.334324
21
20.804073
0
LINE
8
Layer 1
10
142.334324
20
20.804073
11
142.955906
21
17.729834
0
LINE
8
Layer 1
10
142.955906
20
17.729834
11
144.256000
21
11.853900
0
LINE
8
Layer 1
10
144.256000
20
11.853900
11
142.764484
21
9.979205
0
LINE
8
Layer 1
10
142.764484
20
9.979205
11
140.922625
21
8.195605
0
LINE
8
Layer 1
10
140.922625
20
8.195605
11
138.849953
21
6.718995
0
LINE
8
Layer 1
10
138.849953
20
6.718995
11
137.764416
21
6.163278
0
LINE
8
Layer 1
10
137.764416
20
6.163278
11
136.666000
21
5.765270
0
LINE
8
Layer 1
10
136.666000
20
5.765270
11
135.587875
21
5.847951
0
LINE
8
Layer 1
10
135.587875
20
5.847951
11
134.623000
21
6.315600
0
LINE
8
Layer 1
10
134.623000
20
6.315600
11
134.180625
21
6.883696
0
LINE
8
Layer 1
10
134.180625
20
6.883696
11
133.964000
21
7.572640
0
LINE
8
Layer 1
10
133.964000
20
7.572640
11
133.890047
21
8.736128
0
LINE
8
Layer 1
10
133.890047
20
8.736128
11
133.955125
21
9.963068
0
LINE
8
Layer 1
10
133.955125
20
9.963068
11
134.208000
21
12.361100
0
LINE
8
Layer 1
10
134.208000
20
12.361100
11
134.999000
21
22.355900
0
LINE
8
Layer 1
10
134.999000
20
22.355900
11
135.229500
21
24.936363
0
LINE
8
Layer 1
10
135.229500
20
24.936363
11
135.283000
21
27.517200
0
LINE
8
Layer 1
10
135.283000
20
27.517200
11
135.080094
21
28.685623
0
LINE
8
Layer 1
10
135.080094
20
28.685623
11
134.676750
21
29.813313
0
LINE
8
Layer 1
10
134.676750
20
29.813313
11
133.574000
21
31.937000
0
LINE
8
Layer 1
10
133.574000
20
31.937000
11
132.654250
21
33.434319
0
LINE
8
Layer 1
10
132.654250
20
33.434319
11
131.636250
21
34.808300
0
LINE
8
Layer 1
10
131.636250
20
34.808300
11
130.483625
21
36.070756
0
LINE
8
Layer 1
10
130.483625
20
36.070756
11
129.160000
21
37.233500
0
LINE
8
Layer 1
10
129.160000
20
37.233500
11
126.259330
21
39.124130
0
LINE
8
Layer 1
10
126.259330
20
39.124130
11
122.894328
21
40.713817
0
LINE
8
Layer 1
10
122.894328
20
40.713817
11
119.194381
21
42.066530
0
LINE
8
Layer 1
10
119.194381
20
42.066530
11
115.288875
21
43.246237
0
LINE
8
Layer 1
10
115.288875
20
43.246237
11
107.378734
21
45.342514
0
LINE
8
Layer 1
10
107.378734
20
45.342514
11
103.632873
21
46.387021
0
LINE
8
Layer 1
10
103.632873
20
46.387021
11
100.199000
21
47.514400
0
LINE
8
Layer 1
10
100.199000
20
47.514400
11
95.331916
21
49.509730
0
LINE
8
Layer 1
10
95.331916
20
49.509730
11
90.677175
21
51.870862
0
LINE
8
Layer 1
10
90.677175
20
51.870862
11
86.259547
21
54.640839
0
LINE
8
Layer 1
10
86.259547
20
54.640839
11
82.103800
21
57.862700
0
LINE
8
Layer 1
10
82.103800
20
57.862700
11
79.664305
21
60.166677
0
LINE
8
Layer 1
10
79.664305
20
60.166677
11
77.447288
21
62.840787
0
LINE
8
Layer 1
10
77.447288
20
62.840787
11
76.526256
21
64.301588
0
LINE
8
Layer 1
10
76.526256
20
64.301588
11
75.785702
21
65.836855
0
LINE
8
Layer 1
10
75.785702
20
65.836855
11
75.267243
21
67.440566
0
LINE
8
Layer 1
10
75.267243
20
67.440566
11
75.012500
21
69.106700
0
LINE
8
Layer 1
10
75.012500
20
69.106700
11
75.051575
21
70.474391
0
LINE
8
Layer 1
10
75.051575
20
70.474391
11
75.347375
21
71.792900
0
LINE
8
Layer 1
10
75.347375
20
71.792900
11
75.900913
21
73.022909
0
LINE
8
Layer 1
10
75.900913
20
73.022909
11
76.713200
21
74.125100
0
LINE
8
Layer 1
10
76.713200
20
74.125100
11
77.872227
21
75.166633
0
LINE
8
Layer 1
10
77.872227
20
75.166633
11
79.091173
21
75.878944
0
LINE
8
Layer 1
10
79.091173
20
75.878944
11
80.364474
21
76.323814
0
LINE
8
Layer 1
10
80.364474
20
76.323814
11
81.686563
21
76.563025
0
LINE
8
Layer 1
10
81.686563
20
76.563025
11
84.454845
21
76.671594
0
LINE
8
Layer 1
10
84.454845
20
76.671594
11
87.351500
21
76.698900
0
LINE
8
Layer 1
10
87.351500
20
76.698900
11
88.402606
21
76.804783
0
LINE
8
Layer 1
10
88.402606
20
76.804783
11
89.511350
21
77.050663
0
LINE
8
Layer 1
10
89.511350
20
77.050663
11
90.539919
21
77.479636
0
LINE
8
Layer 1
10
90.539919
20
77.479636
11
91.350500
21
78.134800
0
LINE
8
Layer 1
10
91.350500
20
78.134800
11
91.719513
21
78.799050
0
LINE
8
Layer 1
10
91.719513
20
78.799050
11
91.791300
21
79.555400
0
LINE
8
Layer 1
10
91.791300
20
79.555400
11
91.610106
21
80.360682
0
LINE
8
Layer 1
10
91.610106
20
80.360682
11
91.248423
21
81.153705
0
LINE
8
Layer 1
10
91.248423
20
81.153705
11
90.128187
21
82.649137
0
LINE
8
Layer 1
10
90.128187
20
82.649137
11
88.719783
21
83.934027
0
LINE
8
Layer 1
10
88.719783
20
83.934027
11
87.312400
21
84.900700
0
LINE
8
Layer 1
10
87.312400
20
84.900700
11
83.715166
21
86.682239
0
LINE
8
Layer 1
10
83.715166
20
86.682239
11
79.586425
21
88.284762
0
LINE
8
Layer 1
10
79.586425
20
88.284762
11
71.481100
21
91.015500
0
LINE
8
Layer 1
10
71.481100
20
91.015500
11
63.716797
21
93.940191
0
LINE
8
Layer 1
10
63.716797
20
93.940191
11
59.719657
21
95.663314
0
LINE
8
Layer 1
10
59.719657
20
95.663314
11
55.738800
21
97.550700
0
LINE
8
Layer 1
10
55.738800
20
97.550700
11
51.843930
21
99.595154
0
LINE
8
Layer 1
10
51.843930
20
99.595154
11
48.104753
21
101.789484
0
LINE
8
Layer 1
10
48.104753
20
101.789484
11
44.590975
21
104.126497
0
LINE
8
Layer 1
10
44.590975
20
104.126497
11
41.372300
21
106.599000
0
LINE
8
Layer 1
10
41.372300
20
106.599000
11
38.838027
21
108.814158
0
LINE
8
Layer 1
10
38.838027
20
108.814158
11
36.349066
21
111.235578
0
LINE
8
Layer 1
10
36.349066
20
111.235578
11
33.983353
21
113.849678
0
LINE
8
Layer 1
10
33.983353
20
113.849678
11
31.818825
21
116.642875
0
LINE
8
Layer 1
10
31.818825
20
116.642875
11
29.933419
21
119.601588
0
LINE
8
Layer 1
10
29.933419
20
119.601588
11
28.405072
21
122.712234
0
LINE
8
Layer 1
10
28.405072
20
122.712234
11
27.311720
21
125.961232
0
LINE
8
Layer 1
10
27.311720
20
125.961232
11
26.731300
21
129.335000
0
LINE
8
Layer 1
10
26.731300
20
129.335000
11
26.655009
21
131.162125
0
LINE
8
Layer 1
10
26.655009
20
131.162125
11
26.812700
21
133.004250
0
LINE
8
Layer 1
10
26.812700
20
133.004250
11
27.320041
21
134.753000
0
LINE
8
Layer 1
10
27.320041
20
134.753000
11
27.740976
21
135.558492
0
LINE
8
Layer 1
10
27.740976
20
135.558492
11
28.292700
21
136.300000
0
LINE
8
Layer 1
10
28.292700
20
136.300000
11
29.527312
21
137.432262
0
LINE
8
Layer 1
10
29.527312
20
137.432262
11
30.874364
21
138.208906
0
LINE
8
Layer 1
10
30.874364
20
138.208906
11
32.310931
21
138.679973
0
LINE
8
Layer 1
10
32.310931
20
138.679973
11
33.814087
21
138.895500
0
LINE
8
Layer 1
10
33.814087
20
138.895500
11
35.360908
21
138.905527
0
LINE
8
Layer 1
10
35.360908
20
138.905527
11
36.928467
21
138.760094
0
LINE
8
Layer 1
10
36.928467
20
138.760094
11
40.034100
21
138.203000
0
LINE
8
Layer 1
10
40.034100
20
138.203000
11
41.681325
21
137.842875
0
LINE
8
Layer 1
10
41.681325
20
137.842875
11
43.350600
21
137.725000
0
LINE
8
Layer 1
10
43.350600
20
137.725000
11
43.868850
21
137.875875
0
LINE
8
Layer 1
10
43.868850
20
137.875875
11
44.260500
21
138.245000
0
LINE
8
Layer 1
10
44.260500
20
138.245000
11
44.227000
21
139.466254
0
LINE
8
Layer 1
10
44.227000
20
139.466254
11
43.714722
21
140.895469
0
LINE
8
Layer 1
10
43.714722
20
140.895469
11
42.845682
21
142.454574
0
LINE
8
Layer 1
10
42.845682
20
142.454574
11
41.741900
21
144.065500
0
LINE
8
Layer 1
10
41.741900
20
144.065500
11
39.318178
21
147.130531
0
LINE
8
Layer 1
10
39.318178
20
147.130531
11
37.419700
21
149.466000
0
LINE
8
Layer 1
10
37.419700
20
149.466000
11
35.066812
21
152.743000
0
LINE
8
Layer 1
10
35.066812
20
152.743000
11
32.934800
21
156.167000
0
LINE
8
Layer 1
10
32.934800
20
156.167000
11
31.421360
21
159.069449
0
LINE
8
Layer 1
10
31.421360
20
159.069449
11
30.117081
21
161.985094
0
LINE
8
Layer 1
10
30.117081
20
161.985094
11
29.023337
21
164.927129
0
LINE
8
Layer 1
10
29.023337
20
164.927129
11
28.141500
21
167.908750
0
LINE
8
Layer 1
10
28.141500
20
167.908750
11
27.472945
21
170.943152
0
LINE
8
Layer 1
10
27.472945
20
170.943152
11
27.019044
21
174.043531
0
LINE
8
Layer 1
10
27.019044
20
174.043531
11
26.781171
21
177.223082
0
LINE
8
Layer 1
10
26.781171
20
177.223082
11
26.760700
21
180.495000
0
LINE
8
Layer 1
10
26.760700
20
180.495000
11
26.852350
21
183.181375
0
LINE
8
Layer 1
10
26.852350
20
183.181375
11
27.001759
21
184.537547
0
LINE
8
Layer 1
10
27.001759
20
184.537547
11
27.296200
21
185.807000
0
LINE
8
Layer 1
10
27.296200
20
185.807000
11
27.612002
21
186.358031
0
LINE
8
Layer 1
10
27.612002
20
186.358031
11
28.099788
21
186.777250
0
LINE
8
Layer 1
10
28.099788
20
186.777250
11
29.260000
21
187.377000
0
LINE
8
Layer 1
10
29.260000
20
187.377000
11
32.118288
21
188.516168
0
LINE
8
Layer 1
10
32.118288
20
188.516168
11
35.134619
21
189.371906
0
LINE
8
Layer 1
10
35.134619
20
189.371906
11
38.263234
21
189.951316
0
LINE
8
Layer 1
10
38.263234
20
189.951316
11
41.458375
21
190.261500
0
LINE
8
Layer 1
10
41.458375
20
190.261500
11
44.674281
21
190.309559
0
LINE
8
Layer 1
10
44.674281
20
190.309559
11
47.865194
21
190.102594
0
LINE
8
Layer 1
10
47.865194
20
190.102594
11
50.985353
21
189.647707
0
LINE
8
Layer 1
10
50.985353
20
189.647707
11
53.989000
21
188.952000
0
LINE
8
Layer 1
10
53.989000
20
188.952000
11
57.378189
21
187.837719
0
LINE
8
Layer 1
10
57.378189
20
187.837719
11
60.706488
21
186.415750
0
LINE
8
Layer 1
10
60.706488
20
186.415750
11
63.916042
21
184.734656
0
LINE
8
Layer 1
10
63.916042
20
184.734656
11
66.949000
21
182.843000
0
LINE
8
Layer 1
10
66.949000
20
182.843000
11
70.141034
21
180.495625
0
LINE
8
Layer 1
10
70.141034
20
180.495625
11
73.340850
21
178.036500
0
LINE
8
Layer 1
10
73.340850
20
178.036500
11
76.660366
21
175.790375
0
LINE
8
Layer 1
10
76.660366
20
175.790375
11
78.399986
21
174.848672
0
LINE
8
Layer 1
10
78.399986
20
174.848672
11
80.211500
21
174.082000
0
LINE
8
Layer 1
10
80.211500
20
174.082000
11
81.565128
21
173.676922
0
LINE
8
Layer 1
10
81.565128
20
173.676922
11
83.017100
21
173.442375
0
LINE
8
Layer 1
10
83.017100
20
173.442375
11
84.466447
21
173.479141
0
LINE
8
Layer 1
10
84.466447
20
173.479141
11
85.812200
21
173.888000
0
LINE
8
Layer 1
10
85.812200
20
173.888000
11
86.732338
21
174.504365
0
LINE
8
Layer 1
10
86.732338
20
174.504365
11
87.402177
21
175.288902
0
LINE
8
Layer 1
10
87.402177
20
175.288902
11
87.845197
21
176.219215
0
LINE
8
Layer 1
10
87.845197
20
176.219215
11
88.084875
21
177.272906
0
LINE
8
Layer 1
10
88.084875
20
177.272906
11
88.144689
21
178.427578
0
LINE
8
Layer 1
10
88.144689
20
178.427578
11
88.048116
21
179.660832
0
LINE
8
Layer 1
10
88.048116
20
179.660832
11
87.479725
21
182.273500
0
LINE
8
Layer 1
10
87.479725
20
182.273500
11
86.567524
21
184.931730
0
LINE
8
Layer 1
10
86.567524
20
184.931730
11
85.499338
21
187.456344
0
LINE
8
Layer 1
10
85.499338
20
187.456344
11
83.646300
21
191.388000
0
LINE
8
Layer 1
10
83.646300
20
191.388000
11
81.831300
21
196.128000
0
LINE
8
Layer 1
10
81.831300
20
196.128000
11
80.629227
21
200.602984
0
LINE
8
Layer 1
10
80.629227
20
200.602984
11
80.204225
21
202.913947
0
LINE
8
Layer 1
10
80.204225
20
202.913947
11
79.930487
21
205.248875
0
LINE
8
Layer 1
10
79.930487
20
205.248875
11
79.833446
21
207.589006
0
LINE
8
Layer 1
10
79.833446
20
207.589006
11
79.938530
21
209.915578
0
LINE
8
Layer 1
10
79.938530
20
209.915578
11
80.271171
21
212.209830
0
LINE
8
Layer 1
10
80.271171
20
212.209830
11
80.856800
21
214.453000
0
LINE
8
Layer 1
10
80.856800
20
214.453000
11
81.748069
21
216.713922
0
LINE
8
Layer 1
10
81.748069
20
216.713922
11
82.943500
21
218.759875
0
LINE
8
Layer 1
10
82.943500
20
218.759875
11
84.514006
21
220.505641
0
LINE
8
Layer 1
10
84.514006
20
220.505641
11
85.462073
21
221.239322
0
LINE
8
Layer 1
10
85.462073
20
221.239322
11
86.530500
21
221.866000
0
LINE
8
Layer 1
10
86.530500
20
221.866000
11
88.021697
21
222.424781
0
LINE
8
Layer 1
10
88.021697
20
222.424781
11
89.547209
21
222.651500
0
LINE
8
Layer 1
10
89.547209
20
222.651500
11
91.081979
21
222.584594
0
LINE
8
Layer 1
10
91.081979
20
222.584594
11
92.600950
21
222.262500
0
LINE
8
Layer 1
10
92.600950
20
222.262500
11
94.079064
21
221.723656
0
LINE
8
Layer 1
10
94.079064
20
221.723656
11
95.491266
21
221.006500
0
LINE
8
Layer 1
10
95.491266
20
221.006500
11
96.812496
21
220.149469
0
LINE
8
Layer 1
10
96.812496
20
220.149469
11
98.017700
21
219.191000
0
LINE
8
Layer 1
10
98.017700
20
219.191000
11
101.067638
21
216.212125
0
LINE
8
Layer 1
10
101.067638
20
216.212125
11
102.748311
21
214.823891
0
LINE
8
Layer 1
10
102.748311
20
214.823891
11
103.628628
21
214.291205
0
LINE
8
Layer 1
10
103.628628
20
214.291205
11
104.536000
21
213.918000
0
LINE
8
Layer 1
10
104.536000
20
213.918000
11
105.284000
21
213.803375
0
LINE
8
Layer 1
10
105.284000
20
213.803375
11
106.008000
21
214.003000
0
LINE
8
Layer 1
10
106.008000
20
214.003000
11
106.512256
21
214.397451
0
LINE
8
Layer 1
10
106.512256
20
214.397451
11
106.972486
21
214.956842
0
LINE
8
Layer 1
10
106.972486
20
214.956842
11
107.770391
21
216.485172
0
LINE
8
Layer 1
10
107.770391
20
216.485172
11
108.420756
21
218.417447
0
LINE
8
Layer 1
10
108.420756
20
218.417447
11
108.942625
21
220.583125
0
LINE
8
Layer 1
10
108.942625
20
220.583125
11
109.677047
21
224.932516
0
LINE
8
Layer 1
10
109.677047
20
224.932516
11
110.126000
21
228.169000
0
LINE
8
Layer 1
10
110.126000
20
228.169000
11
111.333000
21
234.372000
0
LINE
8
Layer 1
10
111.333000
20
234.372000
11
112.178045
21
237.533643
0
LINE
8
Layer 1
10
112.178045
20
237.533643
11
113.196234
21
240.633141
0
LINE
8
Layer 1
10
113.196234
20
240.633141
11
114.399275
21
243.652600
0
LINE
8
Layer 1
10
114.399275
20
243.652600
11
115.798875
21
246.574125
0
LINE
8
Layer 1
10
115.798875
20
246.574125
11
117.406740
21
249.379822
0
LINE
8
Layer 1
10
117.406740
20
249.379822
11
119.234578
21
252.051797
0
LINE
8
Layer 1
10
119.234578
20
252.051797
11
121.294096
21
254.572154
0
LINE
8
Layer 1
10
121.294096
20
254.572154
11
123.597000
21
256.923000
0
LINE
8
Layer 1
10
123.597000
20
256.923000
11
126.837625
21
259.639125
0
LINE
8
Layer 1
10
126.837625
20
259.639125
11
130.262000
21
262.122000
0
LINE
8
Layer 1
10
130.262000
20
262.122000
11
134.873000
21
265.257000
0
LINE
8
Layer 1
10
134.873000
20
265.257000
11
134.873000
21
265.257000
0
LINE
8
Layer 1
10
139.081000
20
22.662300
11
139.413250
21
20.698187
0
LINE
8
Layer 1
10
139.413250
20
20.698187
11
139.672000
21
18.711800
0
LINE
8
Layer 1
10
139.672000
20
18.711800
11
140.210375
21
16.049988
0
LINE
8
Layer 1
10
140.210375
20
16.049988
11
140.895000
21
13.422300
0
LINE
8
Layer 1
10
140.895000
20
13.422300
11
138.835000
21
11.199800
0
LINE
8
Layer 1
10
138.835000
20
11.199800
11
137.821000
21
10.217900
0
LINE
8
Layer 1
10
137.821000
20
10.217900
11
138.108875
21
14.172025
0
LINE
8
Layer 1
10
138.108875
20
14.172025
11
138.516000
21
18.117600
0
LINE
8
Layer 1
10
138.516000
20
18.117600
11
138.730250
21
20.401950
0
LINE
8
Layer 1
10
138.730250
20
20.401950
11
139.081000
21
22.662300
0
LINE
8
Layer 1
10
139.081000
20
22.662300
11
139.081000
21
22.662300
0
LINE
8
Layer 1
10
181.888000
20
73.169900
11
185.176125
21
73.019500
0
LINE
8
Layer 1
10
185.176125
20
73.019500
11
188.453000
21
72.738900
0
LINE
8
Layer 1
10
188.453000
20
72.738900
11
190.528125
21
72.292037
0
LINE
8
Layer 1
10
190.528125
20
72.292037
11
191.476016
21
71.823923
0
LINE
8
Layer 1
10
191.476016
20
71.823923
11
192.229000
21
71.101400
0
LINE
8
Layer 1
10
192.229000
20
71.101400
11
192.647875
21
70.022262
0
LINE
8
Layer 1
10
192.647875
20
70.022262
11
192.619000
21
68.855600
0
LINE
8
Layer 1
10
192.619000
20
68.855600
11
192.260307
21
67.518247
0
LINE
8
Layer 1
10
192.260307
20
67.518247
11
191.680328
21
66.193267
0
LINE
8
Layer 1
10
191.680328
20
66.193267
11
190.920092
21
64.898857
0
LINE
8
Layer 1
10
190.920092
20
64.898857
11
190.020625
21
63.653212
0
LINE
8
Layer 1
10
190.020625
20
63.653212
11
187.968109
21
61.381002
0
LINE
8
Layer 1
10
187.968109
20
61.381002
11
185.851000
21
59.522200
0
LINE
8
Layer 1
10
185.851000
20
59.522200
11
183.324066
21
57.648910
0
LINE
8
Layer 1
10
183.324066
20
57.648910
11
180.712781
21
55.926880
0
LINE
8
Layer 1
10
180.712781
20
55.926880
11
178.022793
21
54.350056
0
LINE
8
Layer 1
10
178.022793
20
54.350056
11
175.259750
21
52.912388
0
LINE
8
Layer 1
10
175.259750
20
52.912388
11
169.537094
21
50.430302
0
LINE
8
Layer 1
10
169.537094
20
50.430302
11
163.590000
21
48.432200
0
LINE
8
Layer 1
10
163.590000
20
48.432200
11
158.899141
21
47.171113
0
LINE
8
Layer 1
10
158.899141
20
47.171113
11
154.185125
21
45.874550
0
LINE
8
Layer 1
10
154.185125
20
45.874550
11
151.874307
21
45.108552
0
LINE
8
Layer 1
10
151.874307
20
45.108552
11
149.623547
21
44.208388
0
LINE
8
Layer 1
10
149.623547
20
44.208388
11
147.454795
21
43.132292
0
LINE
8
Layer 1
10
147.454795
20
43.132292
11
145.390000
21
41.838500
0
LINE
8
Layer 1
10
145.390000
20
41.838500
11
143.840812
21
40.471984
0
LINE
8
Layer 1
10
143.840812
20
40.471984
11
142.515500
21
38.955375
0
LINE
8
Layer 1
10
142.515500
20
38.955375
11
141.366437
21
37.296678
0
LINE
8
Layer 1
10
141.366437
20
37.296678
11
140.346000
21
35.503900
0
LINE
8
Layer 1
10
140.346000
20
35.503900
11
140.342875
21
39.318487
0
LINE
8
Layer 1
10
140.342875
20
39.318487
11
140.517141
21
41.254802
0
LINE
8
Layer 1
10
140.517141
20
41.254802
11
140.990000
21
43.010900
0
LINE
8
Layer 1
10
140.990000
20
43.010900
11
141.963250
21
44.898812
0
LINE
8
Layer 1
10
141.963250
20
44.898812
11
143.097000
21
46.699200
0
LINE
8
Layer 1
10
143.097000
20
46.699200
11
144.869477
21
49.194711
0
LINE
8
Layer 1
10
144.869477
20
49.194711
11
146.803437
21
51.373584
0
LINE
8
Layer 1
10
146.803437
20
51.373584
11
148.896305
21
53.269590
0
LINE
8
Layer 1
10
148.896305
20
53.269590
11
151.145500
21
54.916500
0
LINE
8
Layer 1
10
151.145500
20
54.916500
11
153.548445
21
56.348085
0
LINE
8
Layer 1
10
153.548445
20
56.348085
11
156.102563
21
57.598116
0
LINE
8
Layer 1
10
156.102563
20
57.598116
11
158.805273
21
58.700364
0
LINE
8
Layer 1
10
158.805273
20
58.700364
11
161.654000
21
59.688600
0
LINE
8
Layer 1
10
161.654000
20
59.688600
11
166.081250
21
60.988138
0
LINE
8
Layer 1
10
166.081250
20
60.988138
11
168.283062
21
61.670414
0
LINE
8
Layer 1
10
168.283062
20
61.670414
11
170.444000
21
62.482300
0
LINE
8
Layer 1
10
170.444000
20
62.482300
11
172.244133
21
63.326268
0
LINE
8
Layer 1
10
172.244133
20
63.326268
11
173.993875
21
64.316684
0
LINE
8
Layer 1
10
173.993875
20
64.316684
11
175.665617
21
65.450609
0
LINE
8
Layer 1
10
175.665617
20
65.450609
11
177.231750
21
66.725100
0
LINE
8
Layer 1
10
177.231750
20
66.725100
11
178.664664
21
68.137216
0
LINE
8
Layer 1
10
178.664664
20
68.137216
11
179.936750
21
69.684016
0
LINE
8
Layer 1
10
179.936750
20
69.684016
11
181.020398
21
71.362557
0
LINE
8
Layer 1
10
181.020398
20
71.362557
11
181.888000
21
73.169900
0
LINE
8
Layer 1
10
181.888000
20
73.169900
11
181.888000
21
73.169900
0
LINE
8
Layer 1
10
135.347000
20
261.402000
11
137.445500
21
260.196625
0
LINE
8
Layer 1
10
137.445500
20
260.196625
11
139.469000
21
258.860000
0
LINE
8
Layer 1
10
139.469000
20
258.860000
11
143.081607
21
256.166459
0
LINE
8
Layer 1
10
143.081607
20
256.166459
11
146.276734
21
253.188797
0
LINE
8
Layer 1
10
146.276734
20
253.188797
11
149.061963
21
249.940455
0
LINE
8
Layer 1
10
149.061963
20
249.940455
11
151.444875
21
246.434875
0
LINE
8
Layer 1
10
151.444875
20
246.434875
11
153.433053
21
242.685498
0
LINE
8
Layer 1
10
153.433053
20
242.685498
11
155.034078
21
238.705766
0
LINE
8
Layer 1
10
155.034078
20
238.705766
11
156.255533
21
234.509119
0
LINE
8
Layer 1
10
156.255533
20
234.509119
11
157.105000
21
230.109000
0
LINE
8
Layer 1
10
157.105000
20
230.109000
11
157.893125
21
222.948625
0
LINE
8
Layer 1
10
157.893125
20
222.948625
11
158.435734
21
219.290297
0
LINE
8
Layer 1
10
158.435734
20
219.290297
11
159.315000
21
216.023000
0
LINE
8
Layer 1
10
159.315000
20
216.023000
11
159.997781
21
214.579687
0
LINE
8
Layer 1
10
159.997781
20
214.579687
11
160.927500
21
213.267250
0
LINE
8
Layer 1
10
160.927500
20
213.267250
11
162.088969
21
212.165938
0
LINE
8
Layer 1
10
162.088969
20
212.165938
11
163.467000
21
211.356000
0
LINE
8
Layer 1
10
163.467000
20
211.356000
11
164.708508
21
210.929494
0
LINE
8
Layer 1
10
164.708508
20
210.929494
11
165.870186
21
210.738967
0
LINE
8
Layer 1
10
165.870186
20
210.738967
11
166.960892
21
210.759093
0
LINE
8
Layer 1
10
166.960892
20
210.759093
11
167.989484
21
210.964547
0
LINE
8
Layer 1
10
167.989484
20
210.964547
11
169.895760
21
211.830135
0
LINE
8
Layer 1
10
169.895760
20
211.830135
11
171.659875
21
213.133125
0
LINE
8
Layer 1
10
171.659875
20
213.133125
11
175.045078
21
216.240891
0
LINE
8
Layer 1
10
175.045078
20
216.240891
11
176.807893
21
217.640455
0
LINE
8
Layer 1
10
176.807893
20
217.640455
11
178.712000
21
218.667000
0
LINE
8
Layer 1
10
178.712000
20
218.667000
11
179.916984
21
219.016422
0
LINE
8
Layer 1
10
179.916984
20
219.016422
11
181.147375
21
219.135875
0
LINE
8
Layer 1
10
181.147375
20
219.135875
11
182.372328
21
219.002391
0
LINE
8
Layer 1
10
182.372328
20
219.002391
11
183.561000
21
218.593000
0
LINE
8
Layer 1
10
183.561000
20
218.593000
11
184.656016
21
217.876281
0
LINE
8
Layer 1
10
184.656016
20
217.876281
11
185.547125
21
216.925750
0
LINE
8
Layer 1
10
185.547125
20
216.925750
11
186.247922
21
215.815094
0
LINE
8
Layer 1
10
186.247922
20
215.815094
11
186.772000
21
214.618000
0
LINE
8
Layer 1
10
186.772000
20
214.618000
11
187.279844
21
212.916406
0
LINE
8
Layer 1
10
187.279844
20
212.916406
11
187.609750
21
211.164750
0
LINE
8
Layer 1
10
187.609750
20
211.164750
11
187.828000
21
207.614000
0
LINE
8
Layer 1
10
187.828000
20
207.614000
11
187.681223
21
204.974986
0
LINE
8
Layer 1
10
187.681223
20
204.974986
11
187.306656
21
202.471641
0
LINE
8
Layer 1
10
187.306656
20
202.471641
11
186.735449
21
200.072756
0
LINE
8
Layer 1
10
186.735449
20
200.072756
11
185.998750
21
197.747125
0
LINE
8
Layer 1
10
185.998750
20
197.747125
11
184.153469
21
193.190797
0
LINE
8
Layer 1
10
184.153469
20
193.190797
11
182.020000
21
188.553000
0
LINE
8
Layer 1
10
182.020000
20
188.553000
11
180.689219
21
185.333000
0
LINE
8
Layer 1
10
180.689219
20
185.333000
11
179.777500
21
182.005000
0
LINE
8
Layer 1
10
179.777500
20
182.005000
11
179.562285
21
180.314797
0
LINE
8
Layer 1
10
179.562285
20
180.314797
11
179.552031
21
178.614750
0
LINE
8
Layer 1
10
179.552031
20
178.614750
11
179.780137
21
176.910578
0
LINE
8
Layer 1
10
179.780137
20
176.910578
11
180.280000
21
175.208000
0
LINE
8
Layer 1
10
180.280000
20
175.208000
11
180.965547
21
173.763594
0
LINE
8
Layer 1
10
180.965547
20
173.763594
11
181.883125
21
172.469000
0
LINE
8
Layer 1
10
181.883125
20
172.469000
11
183.034141
21
171.386656
0
LINE
8
Layer 1
10
183.034141
20
171.386656
11
184.420000
21
170.579000
0
LINE
8
Layer 1
10
184.420000
20
170.579000
11
186.393934
21
169.994932
0
LINE
8
Layer 1
10
186.393934
20
169.994932
11
188.333344
21
169.904328
0
LINE
8
Layer 1
10
188.333344
20
169.904328
11
190.230520
21
170.224467
0
LINE
8
Layer 1
10
190.230520
20
170.224467
11
192.077750
21
170.872625
0
LINE
8
Layer 1
10
192.077750
20
170.872625
11
193.867324
21
171.766080
0
LINE
8
Layer 1
10
193.867324
20
171.766080
11
195.591531
21
172.822109
0
LINE
8
Layer 1
10
195.591531
20
172.822109
11
198.813000
21
175.091000
0
LINE
8
Layer 1
10
198.813000
20
175.091000
11
204.267000
21
178.904000
0
LINE
8
Layer 1
10
204.267000
20
178.904000
11
209.008000
21
181.777000
0
LINE
8
Layer 1
10
209.008000
20
181.777000
11
214.014000
21
184.159000
0
LINE
8
Layer 1
10
214.014000
20
184.159000
11
217.191451
21
185.297252
0
LINE
8
Layer 1
10
217.191451
20
185.297252
11
220.448672
21
186.138516
0
LINE
8
Layer 1
10
220.448672
20
186.138516
11
223.759963
21
186.673428
0
LINE
8
Layer 1
10
223.759963
20
186.673428
11
227.099625
21
186.892625
0
LINE
8
Layer 1
10
227.099625
20
186.892625
11
230.441959
21
186.786744
0
LINE
8
Layer 1
10
230.441959
20
186.786744
11
233.761266
21
186.346422
0
LINE
8
Layer 1
10
233.761266
20
186.346422
11
237.031846
21
185.562295
0
LINE
8
Layer 1
10
237.031846
20
185.562295
11
240.228000
21
184.425000
0
LINE
8
Layer 1
10
240.228000
20
184.425000
11
240.617794
21
182.550697
0
LINE
8
Layer 1
10
240.617794
20
182.550697
11
240.845668
21
180.608154
0
LINE
8
Layer 1
10
240.845668
20
180.608154
11
240.850094
21
176.570797
0
LINE
8
Layer 1
10
240.850094
20
176.570797
11
240.310160
21
172.417822
0
LINE
8
Layer 1
10
240.310160
20
172.417822
11
239.294750
21
168.254125
0
LINE
8
Layer 1
10
239.294750
20
168.254125
11
237.872746
21
164.184600
0
LINE
8
Layer 1
10
237.872746
20
164.184600
11
236.113031
21
160.314141
0
LINE
8
Layer 1
10
236.113031
20
160.314141
11
234.084488
21
156.747643
0
LINE
8
Layer 1
10
234.084488
20
156.747643
11
231.856000
21
153.590000
0
LINE
8
Layer 1
10
231.856000
20
153.590000
11
229.405484
21
150.725687
0
LINE
8
Layer 1
10
229.405484
20
150.725687
11
226.844625
21
147.776250
0
LINE
8
Layer 1
10
226.844625
20
147.776250
11
225.654154
21
146.238906
0
LINE
8
Layer 1
10
225.654154
20
146.238906
11
224.593703
21
144.643438
0
LINE
8
Layer 1
10
224.593703
20
144.643438
11
223.715807
21
142.977563
0
LINE
8
Layer 1
10
223.715807
20
142.977563
11
223.073000
21
141.229000
0
LINE
8
Layer 1
10
223.073000
20
141.229000
11
222.851562
21
140.144047
0
LINE
8
Layer 1
10
222.851562
20
140.144047
11
222.810500
21
139.033875
0
LINE
8
Layer 1
10
222.810500
20
139.033875
11
222.986938
21
137.945266
0
LINE
8
Layer 1
10
222.986938
20
137.945266
11
223.418000
21
136.925000
0
LINE
8
Layer 1
10
223.418000
20
136.925000
11
223.958546
21
136.186959
0
LINE
8
Layer 1
10
223.958546
20
136.186959
11
224.593961
21
135.625389
0
LINE
8
Layer 1
10
224.593961
20
135.625389
11
225.313036
21
135.220495
0
LINE
8
Layer 1
10
225.313036
20
135.220495
11
226.104563
21
134.952484
0
LINE
8
Layer 1
10
226.104563
20
134.952484
11
227.860133
21
134.747932
0
LINE
8
Layer 1
10
227.860133
20
134.747932
11
229.771000
21
134.853375
0
LINE
8
Layer 1
10
229.771000
20
134.853375
11
233.699937
21
135.360828
0
LINE
8
Layer 1
10
233.699937
20
135.360828
11
235.538664
21
135.446127
0
LINE
8
Layer 1
10
235.538664
20
135.446127
11
237.174000
21
135.208000
0
LINE
8
Layer 1
10
237.174000
20
135.208000
11
238.038781
21
134.874703
0
LINE
8
Layer 1
10
238.038781
20
134.874703
11
238.861000
21
134.397125
0
LINE
8
Layer 1
10
238.861000
20
134.397125
11
239.572219
21
133.777984
0
LINE
8
Layer 1
10
239.572219
20
133.777984
11
240.104000
21
133.020000
0
LINE
8
Layer 1
10
240.104000
20
133.020000
11
240.453234
21
132.093664
0
LINE
8
Layer 1
10
240.453234
20
132.093664
11
240.637187
21
131.068375
0
LINE
8
Layer 1
10
240.637187
20
131.068375
11
240.605250
21
128.852750
0
LINE
8
Layer 1
10
240.605250
20
128.852750
11
240.200187
21
126.636750
0
LINE
8
Layer 1
10
240.200187
20
126.636750
11
239.614000
21
124.684000
0
LINE
8
Layer 1
10
239.614000
20
124.684000
11
238.632914
21
122.351200
0
LINE
8
Layer 1
10
238.632914
20
122.351200
11
237.372268
21
120.067787
0
LINE
8
Layer 1
10
237.372268
20
120.067787
11
235.859600
21
117.840118
0
LINE
8
Layer 1
10
235.859600
20
117.840118
11
234.122453
21
115.674548
0
LINE
8
Layer 1
10
234.122453
20
115.674548
11
232.188366
21
113.577434
0
LINE
8
Layer 1
10
232.188366
20
113.577434
11
230.084881
21
111.555132
0
LINE
8
Layer 1
10
230.084881
20
111.555132
11
225.479875
21
107.760387
0
LINE
8
Layer 1
10
225.479875
20
107.760387
11
220.527760
21
104.341163
0
LINE
8
Layer 1
10
220.527760
20
104.341163
11
215.448859
21
101.348308
0
LINE
8
Layer 1
10
215.448859
20
101.348308
11
210.463498
21
98.832671
0
LINE
8
Layer 1
10
210.463498
20
98.832671
11
205.792000
21
96.845100
0
LINE
8
Layer 1
10
205.792000
20
96.845100
11
201.641875
21
95.312162
0
LINE
8
Layer 1
10
201.641875
20
95.312162
11
197.446000
21
93.911600
0
LINE
8
Layer 1
10
197.446000
20
93.911600
11
191.477375
21
92.050700
0
LINE
8
Layer 1
10
191.477375
20
92.050700
11
188.535578
21
91.006456
0
LINE
8
Layer 1
10
188.535578
20
91.006456
11
185.658000
21
89.779400
0
LINE
8
Layer 1
10
185.658000
20
89.779400
11
182.807375
21
88.329048
0
LINE
8
Layer 1
10
182.807375
20
88.329048
11
180.081250
21
86.558588
0
LINE
8
Layer 1
10
180.081250
20
86.558588
11
178.860383
21
85.513376
0
LINE
8
Layer 1
10
178.860383
20
85.513376
11
177.785250
21
84.340208
0
LINE
8
Layer 1
10
177.785250
20
84.340208
11
176.894055
21
83.023108
0
LINE
8
Layer 1
10
176.894055
20
83.023108
11
176.225000
21
81.546100
0
LINE
8
Layer 1
10
176.225000
20
81.546100
11
175.911188
21
80.363919
0
LINE
8
Layer 1
10
175.911188
20
80.363919
11
175.798750
21
79.146600
0
LINE
8
Layer 1
10
175.798750
20
79.146600
11
175.929688
21
77.939856
0
LINE
8
Layer 1
10
175.929688
20
77.939856
11
176.346000
21
76.789400
0
LINE
8
Layer 1
10
176.346000
20
76.789400
11
177.315812
21
75.494625
0
LINE
8
Layer 1
10
177.315812
20
75.494625
11
178.605500
21
74.515750
0
LINE
8
Layer 1
10
178.605500
20
74.515750
11
180.078188
21
73.786550
0
LINE
8
Layer 1
10
180.078188
20
73.786550
11
181.597000
21
73.240800
0
LINE
8
Layer 1
10
181.597000
20
73.240800
11
179.772375
21
71.293075
0
LINE
8
Layer 1
10
179.772375
20
71.293075
11
177.743000
21
69.553100
0
LINE
8
Layer 1
10
177.743000
20
69.553100
11
174.949387
21
67.626759
0
LINE
8
Layer 1
10
174.949387
20
67.626759
11
172.042781
21
66.127841
0
LINE
8
Layer 1
10
172.042781
20
66.127841
11
169.049035
21
64.944977
0
LINE
8
Layer 1
10
169.049035
20
64.944977
11
165.994000
21
63.966800
0
LINE
8
Layer 1
10
165.994000
20
63.966800
11
159.803469
21
62.179034
0
LINE
8
Layer 1
10
159.803469
20
62.179034
11
156.719676
21
61.146710
0
LINE
8
Layer 1
10
156.719676
20
61.146710
11
153.678000
21
59.873600
0
LINE
8
Layer 1
10
153.678000
20
59.873600
11
151.754484
21
58.850025
0
LINE
8
Layer 1
10
151.754484
20
58.850025
11
149.930625
21
57.669850
0
LINE
8
Layer 1
10
149.930625
20
57.669850
11
148.199953
21
56.354150
0
LINE
8
Layer 1
10
148.199953
20
56.354150
11
146.556000
21
54.924000
0
LINE
8
Layer 1
10
146.556000
20
54.924000
11
144.929000
21
53.323300
0
LINE
8
Layer 1
10
144.929000
20
53.323300
11
143.433000
21
51.599000
0
LINE
8
Layer 1
10
143.433000
20
51.599000
11
142.077000
21
49.762200
0
LINE
8
Layer 1
10
142.077000
20
49.762200
11
140.871000
21
47.824400
0
LINE
8
Layer 1
10
140.871000
20
47.824400
11
141.065375
21
55.819475
0
LINE
8
Layer 1
10
141.065375
20
55.819475
11
141.385000
21
63.812900
0
LINE
8
Layer 1
10
141.385000
20
63.812900
11
141.427500
21
68.195500
0
LINE
8
Layer 1
10
141.427500
20
68.195500
11
141.526750
21
70.570494
0
LINE
8
Layer 1
10
141.526750
20
70.570494
11
141.785000
21
72.344700
0
LINE
8
Layer 1
10
141.785000
20
72.344700
11
142.205234
21
73.366017
0
LINE
8
Layer 1
10
142.205234
20
73.366017
11
142.814375
21
74.376188
0
LINE
8
Layer 1
10
142.814375
20
74.376188
11
144.137000
21
76.277700
0
LINE
8
Layer 1
10
144.137000
20
76.277700
11
148.416594
21
82.298581
0
LINE
8
Layer 1
10
148.416594
20
82.298581
11
153.091250
21
88.027000
0
LINE
8
Layer 1
10
153.091250
20
88.027000
11
158.042281
21
93.528169
0
LINE
8
Layer 1
10
158.042281
20
93.528169
11
163.151000
21
98.867300
0
LINE
8
Layer 1
10
163.151000
20
98.867300
11
171.456000
21
107.376000
0
LINE
8
Layer 1
10
171.456000
20
107.376000
11
177.319109
21
107.503844
0
LINE
8
Layer 1
10
177.319109
20
107.503844
11
183.115375
21
107.969000
0
LINE
8
Layer 1
10
183.115375
20
107.969000
11
188.862703
21
108.835406
0
LINE
8
Layer 1
10
188.862703
20
108.835406
11
194.579000
21
110.167000
0
LINE
8
Layer 1
10
194.579000
20
110.167000
11
198.156633
21
111.320936
0
LINE
8
Layer 1
10
198.156633
20
111.320936
11
202.055313
21
112.884734
0
LINE
8
Layer 1
10
202.055313
20
112.884734
11
206.100336
21
114.810385
0
LINE
8
Layer 1
10
206.100336
20
114.810385
11
210.117000
21
117.049875
0
LINE
8
Layer 1
10
210.117000
20
117.049875
11
213.930602
21
119.555193
0
LINE
8
Layer 1
10
213.930602
20
119.555193
11
217.366438
21
122.278328
0
LINE
8
Layer 1
10
217.366438
20
122.278328
11
220.249805
21
125.171268
0
LINE
8
Layer 1
10
220.249805
20
125.171268
11
221.429718
21
126.666410
0
LINE
8
Layer 1
10
221.429718
20
126.666410
11
222.406000
21
128.186000
0
LINE
8
Layer 1
10
222.406000
20
128.186000
11
222.236000
21
128.087000
0
LINE
8
Layer 1
10
222.236000
20
128.087000
11
220.294000
21
126.712375
0
LINE
8
Layer 1
10
220.294000
20
126.712375
11
218.469000
21
125.166000
0
LINE
8
Layer 1
10
218.469000
20
125.166000
11
216.200125
21
123.397125
0
LINE
8
Layer 1
10
216.200125
20
123.397125
11
213.821000
21
121.782000
0
LINE
8
Layer 1
10
213.821000
20
121.782000
11
209.042369
21
119.031260
0
LINE
8
Layer 1
10
209.042369
20
119.031260
11
204.334203
21
116.751203
0
LINE
8
Layer 1
10
204.334203
20
116.751203
11
199.640217
21
114.894451
0
LINE
8
Layer 1
10
199.640217
20
114.894451
11
194.904125
21
113.413625
0
LINE
8
Layer 1
10
194.904125
20
113.413625
11
190.069643
21
112.261346
0
LINE
8
Layer 1
10
190.069643
20
112.261346
11
185.080484
21
111.390234
0
LINE
8
Layer 1
10
185.080484
20
111.390234
11
179.880365
21
110.752912
0
LINE
8
Layer 1
10
179.880365
20
110.752912
11
174.413000
21
110.302000
0
LINE
8
Layer 1
10
174.413000
20
110.302000
11
180.104453
21
116.100719
0
LINE
8
Layer 1
10
180.104453
20
116.100719
11
185.507625
21
122.230000
0
LINE
8
Layer 1
10
185.507625
20
122.230000
11
190.690484
21
128.554281
0
LINE
8
Layer 1
10
190.690484
20
128.554281
11
195.721000
21
134.938000
0
LINE
8
Layer 1
10
195.721000
20
134.938000
11
199.126000
21
139.156000
0
LINE
8
Layer 1
10
199.126000
20
139.156000
11
200.795594
21
141.295656
0
LINE
8
Layer 1
10
200.795594
20
141.295656
11
202.354000
21
143.500000
0
LINE
8
Layer 1
10
202.354000
20
143.500000
11
205.794672
21
144.062031
0
LINE
8
Layer 1
10
205.794672
20
144.062031
11
209.057875
21
144.984250
0
LINE
8
Layer 1
10
209.057875
20
144.984250
11
212.193391
21
146.286344
0
LINE
8
Layer 1
10
212.193391
20
146.286344
11
215.251000
21
147.988000
0
LINE
8
Layer 1
10
215.251000
20
147.988000
11
217.493920
21
149.522297
0
LINE
8
Layer 1
10
217.493920
20
149.522297
11
219.625734
21
151.242688
0
LINE
8
Layer 1
10
219.625734
20
151.242688
11
221.613525
21
153.138672
0
LINE
8
Layer 1
10
221.613525
20
153.138672
11
223.424375
21
155.199750
0
LINE
8
Layer 1
10
223.424375
20
155.199750
11
225.025365
21
157.415422
0
LINE
8
Layer 1
10
225.025365
20
157.415422
11
226.383578
21
159.775188
0
LINE
8
Layer 1
10
226.383578
20
159.775188
11
227.466096
21
162.268547
0
LINE
8
Layer 1
10
227.466096
20
162.268547
11
228.240000
21
164.885000
0
LINE
8
Layer 1
10
228.240000
20
164.885000
11
226.889125
21
162.854750
0
LINE
8
Layer 1
10
226.889125
20
162.854750
11
225.524000
21
160.832000
0
LINE
8
Layer 1
10
225.524000
20
160.832000
11
223.492664
21
158.507283
0
LINE
8
Layer 1
10
223.492664
20
158.507283
11
221.299000
21
156.363703
0
LINE
8
Layer 1
10
221.299000
20
156.363703
11
218.955898
21
154.402115
0
LINE
8
Layer 1
10
218.955898
20
154.402115
11
216.476250
21
152.623375
0
LINE
8
Layer 1
10
216.476250
20
152.623375
11
213.872945
21
151.028338
0
LINE
8
Layer 1
10
213.872945
20
151.028338
11
211.158875
21
149.617859
0
LINE
8
Layer 1
10
211.158875
20
149.617859
11
208.346930
21
148.392795
0
LINE
8
Layer 1
10
208.346930
20
148.392795
11
205.450000
21
147.354000
0
LINE
8
Layer 1
10
205.450000
20
147.354000
11
208.535375
21
151.411500
0
LINE
8
Layer 1
10
208.535375
20
151.411500
11
211.557000
21
155.517000
0
LINE
8
Layer 1
10
211.557000
20
155.517000
11
220.181000
21
166.609000
0
LINE
8
Layer 1
10
220.181000
20
166.609000
11
225.887000
21
173.428000
0
LINE
8
Layer 1
10
225.887000
20
173.428000
11
228.305250
21
176.185750
0
LINE
8
Layer 1
10
228.305250
20
176.185750
11
230.557000
21
179.071000
0
LINE
8
Layer 1
10
230.557000
20
179.071000
11
228.809312
21
177.844141
0
LINE
8
Layer 1
10
228.809312
20
177.844141
11
227.154250
21
176.406625
0
LINE
8
Layer 1
10
227.154250
20
176.406625
11
224.077000
21
173.344000
0
LINE
8
Layer 1
10
224.077000
20
173.344000
11
218.412250
21
167.385250
0
LINE
8
Layer 1
10
218.412250
20
167.385250
11
213.022000
21
161.177000
0
LINE
8
Layer 1
10
213.022000
20
161.177000
11
207.747250
21
154.662500
0
LINE
8
Layer 1
10
207.747250
20
154.662500
11
202.354000
21
148.253000
0
LINE
8
Layer 1
10
202.354000
20
148.253000
11
201.796656
21
151.150656
0
LINE
8
Layer 1
10
201.796656
20
151.150656
11
201.514750
21
154.178250
0
LINE
8
Layer 1
10
201.514750
20
154.178250
11
201.440219
21
157.225719
0
LINE
8
Layer 1
10
201.440219
20
157.225719
11
201.505000
21
160.183000
0
LINE
8
Layer 1
10
201.505000
20
160.183000
11
201.904625
21
164.461500
0
LINE
8
Layer 1
10
201.904625
20
164.461500
11
202.077484
21
166.835969
0
LINE
8
Layer 1
10
202.077484
20
166.835969
11
201.999000
21
168.200000
0
LINE
8
Layer 1
10
201.999000
20
168.200000
11
201.849000
21
168.179000
0
LINE
8
Layer 1
10
201.849000
20
168.179000
11
201.112916
21
166.670475
0
LINE
8
Layer 1
10
201.112916
20
166.670475
11
200.494266
21
164.686109
0
LINE
8
Layer 1
10
200.494266
20
164.686109
11
199.990201
21
162.373596
0
LINE
8
Layer 1
10
199.990201
20
162.373596
11
199.597875
21
159.880625
0
LINE
8
Layer 1
10
199.597875
20
159.880625
11
199.137047
21
154.944078
0
LINE
8
Layer 1
10
199.137047
20
154.944078
11
199.089000
21
151.058000
0
LINE
8
Layer 1
10
199.089000
20
151.058000
11
199.413250
21
148.106000
0
LINE
8
Layer 1
10
199.413250
20
148.106000
11
199.955000
21
145.184000
0
LINE
8
Layer 1
10
199.955000
20
145.184000
11
199.344625
21
144.167609
0
LINE
8
Layer 1
10
199.344625
20
144.167609
11
198.595500
21
143.184875
0
LINE
8
Layer 1
10
198.595500
20
143.184875
11
197.017000
21
141.326000
0
LINE
8
Layer 1
10
197.017000
20
141.326000
11
190.045000
21
133.074000
0
LINE
8
Layer 1
10
190.045000
20
133.074000
11
183.055000
21
124.736000
0
LINE
8
Layer 1
10
183.055000
20
124.736000
11
173.437000
21
114.192000
0
LINE
8
Layer 1
10
173.437000
20
114.192000
11
161.276125
21
101.499925
0
LINE
8
Layer 1
10
161.276125
20
101.499925
11
155.304391
21
95.054934
0
LINE
8
Layer 1
10
155.304391
20
95.054934
11
149.566000
21
88.396400
0
LINE
8
Layer 1
10
149.566000
20
88.396400
11
145.390750
21
83.118800
0
LINE
8
Layer 1
10
145.390750
20
83.118800
11
143.464562
21
80.343312
0
LINE
8
Layer 1
10
143.464562
20
80.343312
11
141.772000
21
77.459900
0
LINE
8
Layer 1
10
141.772000
20
77.459900
11
141.240000
21
100.711000
0
LINE
8
Layer 1
10
141.240000
20
100.711000
11
140.891000
21
109.670000
0
LINE
8
Layer 1
10
140.891000
20
109.670000
11
140.744750
21
112.041500
0
LINE
8
Layer 1
10
140.744750
20
112.041500
11
140.693000
21
114.410000
0
LINE
8
Layer 1
10
140.693000
20
114.410000
11
140.960125
21
115.943625
0
LINE
8
Layer 1
10
140.960125
20
115.943625
11
141.519000
21
117.403000
0
LINE
8
Layer 1
10
141.519000
20
117.403000
11
142.665000
21
119.482625
0
LINE
8
Layer 1
10
142.665000
20
119.482625
11
144.063000
21
121.404000
0
LINE
8
Layer 1
10
144.063000
20
121.404000
11
146.547188
21
124.164812
0
LINE
8
Layer 1
10
146.547188
20
124.164812
11
150.171000
21
127.756250
0
LINE
8
Layer 1
10
150.171000
20
127.756250
11
153.961313
21
131.061562
0
LINE
8
Layer 1
10
153.961313
20
131.061562
11
155.614805
21
132.257937
0
LINE
8
Layer 1
10
155.614805
20
132.257937
11
156.945000
21
132.964000
0
LINE
8
Layer 1
10
156.945000
20
132.964000
11
158.246953
21
133.318984
0
LINE
8
Layer 1
10
158.246953
20
133.318984
11
159.636375
21
133.535875
0
LINE
8
Layer 1
10
159.636375
20
133.535875
11
162.402000
21
133.912000
0
LINE
8
Layer 1
10
162.402000
20
133.912000
11
167.370375
21
135.129500
0
LINE
8
Layer 1
10
167.370375
20
135.129500
11
172.221000
21
136.764000
0
LINE
8
Layer 1
10
172.221000
20
136.764000
11
174.704783
21
137.812928
0
LINE
8
Layer 1
10
174.704783
20
137.812928
11
177.352828
21
139.126359
0
LINE
8
Layer 1
10
177.352828
20
139.126359
11
180.055553
21
140.676768
0
LINE
8
Layer 1
10
180.055553
20
140.676768
11
182.703375
21
142.436625
0
LINE
8
Layer 1
10
182.703375
20
142.436625
11
185.186713
21
144.378404
0
LINE
8
Layer 1
10
185.186713
20
144.378404
11
187.395984
21
146.474578
0
LINE
8
Layer 1
10
187.395984
20
146.474578
11
189.221607
21
148.697619
0
LINE
8
Layer 1
10
189.221607
20
148.697619
11
190.554000
21
151.020000
0
LINE
8
Layer 1
10
190.554000
20
151.020000
11
187.291008
21
148.322928
0
LINE
8
Layer 1
10
187.291008
20
148.322928
11
183.900937
21
145.889984
0
LINE
8
Layer 1
10
183.900937
20
145.889984
11
180.383648
21
143.722705
0
LINE
8
Layer 1
10
180.383648
20
143.722705
11
176.739000
21
141.822625
0
LINE
8
Layer 1
10
176.739000
20
141.822625
11
172.966852
21
140.191279
0
LINE
8
Layer 1
10
172.966852
20
140.191279
11
169.067062
21
138.830203
0
LINE
8
Layer 1
10
169.067062
20
138.830203
11
165.039492
21
137.740932
0
LINE
8
Layer 1
10
165.039492
20
137.740932
11
160.884000
21
136.925000
0
LINE
8
Layer 1
10
160.884000
20
136.925000
11
165.864437
21
141.801109
0
LINE
8
Layer 1
10
165.864437
20
141.801109
11
168.210984
21
144.378916
0
LINE
8
Layer 1
10
168.210984
20
144.378916
11
170.435750
21
147.057375
0
LINE
8
Layer 1
10
170.435750
20
147.057375
11
172.519234
21
149.842100
0
LINE
8
Layer 1
10
172.519234
20
149.842100
11
174.441937
21
152.738703
0
LINE
8
Layer 1
10
174.441937
20
152.738703
11
176.184359
21
155.752799
0
LINE
8
Layer 1
10
176.184359
20
155.752799
11
177.727000
21
158.890000
0
LINE
8
Layer 1
10
177.727000
20
158.890000
11
178.681500
21
161.045875
0
LINE
8
Layer 1
10
178.681500
20
161.045875
11
179.429000
21
163.270000
0
LINE
8
Layer 1
10
179.429000
20
163.270000
11
179.509875
21
163.709500
0
LINE
8
Layer 1
10
179.509875
20
163.709500
11
179.386000
21
164.122000
0
LINE
8
Layer 1
10
179.386000
20
164.122000
11
177.720625
21
161.185250
0
LINE
8
Layer 1
10
177.720625
20
161.185250
11
175.927000
21
157.770000
0
LINE
8
Layer 1
10
175.927000
20
157.770000
11
172.767500
21
152.946375
0
LINE
8
Layer 1
10
172.767500
20
152.946375
11
169.260000
21
148.368000
0
LINE
8
Layer 1
10
169.260000
20
148.368000
11
167.010312
21
145.778002
0
LINE
8
Layer 1
10
167.010312
20
145.778002
11
164.599750
21
143.321141
0
LINE
8
Layer 1
10
164.599750
20
143.321141
11
159.456500
21
138.681625
0
LINE
8
Layer 1
10
159.456500
20
138.681625
11
154.151250
21
134.199047
0
LINE
8
Layer 1
10
154.151250
20
134.199047
11
149.005000
21
129.623000
0
LINE
8
Layer 1
10
149.005000
20
129.623000
11
146.385625
21
127.069000
0
LINE
8
Layer 1
10
146.385625
20
127.069000
11
143.950000
21
124.341000
0
LINE
8
Layer 1
10
143.950000
20
124.341000
11
142.101250
21
121.752250
0
LINE
8
Layer 1
10
142.101250
20
121.752250
11
140.470000
21
119.021000
0
LINE
8
Layer 1
10
140.470000
20
119.021000
11
139.334500
21
132.909750
0
LINE
8
Layer 1
10
139.334500
20
132.909750
11
138.038000
21
146.784000
0
LINE
8
Layer 1
10
138.038000
20
146.784000
11
137.239500
21
152.631750
0
LINE
8
Layer 1
10
137.239500
20
152.631750
11
136.845781
21
155.933344
0
LINE
8
Layer 1
10
136.845781
20
155.933344
11
136.789000
21
157.947000
0
LINE
8
Layer 1
10
136.789000
20
157.947000
11
137.248391
21
159.490328
0
LINE
8
Layer 1
10
137.248391
20
159.490328
11
137.926875
21
161.036375
0
LINE
8
Layer 1
10
137.926875
20
161.036375
11
139.388000
21
164.029000
0
LINE
8
Layer 1
10
139.388000
20
164.029000
11
142.533125
21
171.272000
0
LINE
8
Layer 1
10
142.533125
20
171.272000
11
145.502000
21
178.587000
0
LINE
8
Layer 1
10
145.502000
20
178.587000
11
148.298031
21
179.257812
0
LINE
8
Layer 1
10
148.298031
20
179.257812
11
151.029750
21
180.086500
0
LINE
8
Layer 1
10
151.029750
20
180.086500
11
153.701844
21
181.090688
0
LINE
8
Layer 1
10
153.701844
20
181.090688
11
156.319000
21
182.288000
0
LINE
8
Layer 1
10
156.319000
20
182.288000
11
159.378068
21
183.927992
0
LINE
8
Layer 1
10
159.378068
20
183.927992
11
162.256984
21
185.700125
0
LINE
8
Layer 1
10
162.256984
20
185.700125
11
164.959439
21
187.622258
0
LINE
8
Layer 1
10
164.959439
20
187.622258
11
167.489125
21
189.712250
0
LINE
8
Layer 1
10
167.489125
20
189.712250
11
169.849732
21
191.987961
0
LINE
8
Layer 1
10
169.849732
20
191.987961
11
172.044953
21
194.467250
0
LINE
8
Layer 1
10
172.044953
20
194.467250
11
174.078479
21
197.167977
0
LINE
8
Layer 1
10
174.078479
20
197.167977
11
175.954000
21
200.108000
0
LINE
8
Layer 1
10
175.954000
20
200.108000
11
177.917000
21
203.772750
0
LINE
8
Layer 1
10
177.917000
20
203.772750
11
179.490000
21
207.616000
0
LINE
8
Layer 1
10
179.490000
20
207.616000
11
177.001250
21
204.031750
0
LINE
8
Layer 1
10
177.001250
20
204.031750
11
174.442000
21
200.491000
0
LINE
8
Layer 1
10
174.442000
20
200.491000
11
171.746672
21
197.421328
0
LINE
8
Layer 1
10
171.746672
20
197.421328
11
168.760250
21
194.465000
0
LINE
8
Layer 1
10
168.760250
20
194.465000
11
165.520328
21
191.677047
0
LINE
8
Layer 1
10
165.520328
20
191.677047
11
162.064500
21
189.112500
0
LINE
8
Layer 1
10
162.064500
20
189.112500
11
158.430359
21
186.826391
0
LINE
8
Layer 1
10
158.430359
20
186.826391
11
154.655500
21
184.873750
0
LINE
8
Layer 1
10
154.655500
20
184.873750
11
150.777516
21
183.309609
0
LINE
8
Layer 1
10
150.777516
20
183.309609
11
146.834000
21
182.189000
0
LINE
8
Layer 1
10
146.834000
20
182.189000
11
147.937250
21
185.018500
0
LINE
8
Layer 1
10
147.937250
20
185.018500
11
148.937000
21
187.890000
0
LINE
8
Layer 1
10
148.937000
20
187.890000
11
151.002062
21
194.130437
0
LINE
8
Layer 1
10
151.002062
20
194.130437
11
152.743500
21
200.494250
0
LINE
8
Layer 1
10
152.743500
20
200.494250
11
154.021437
21
206.955938
0
LINE
8
Layer 1
10
154.021437
20
206.955938
11
154.442883
21
210.215516
0
LINE
8
Layer 1
10
154.442883
20
210.215516
11
154.696000
21
213.490000
0
LINE
8
Layer 1
10
154.696000
20
213.490000
11
154.835500
21
215.388125
0
LINE
8
Layer 1
10
154.835500
20
215.388125
11
154.823688
21
216.381953
0
LINE
8
Layer 1
10
154.823688
20
216.381953
11
154.645000
21
217.242000
0
LINE
8
Layer 1
10
154.645000
20
217.242000
11
154.441000
21
217.262000
0
LINE
8
Layer 1
10
154.441000
20
217.262000
11
154.229531
21
216.607563
0
LINE
8
Layer 1
10
154.229531
20
216.607563
11
154.131500
21
215.765250
0
LINE
8
Layer 1
10
154.131500
20
215.765250
11
154.029000
21
214.168000
0
LINE
8
Layer 1
10
154.029000
20
214.168000
11
152.721000
21
207.118000
0
LINE
8
Layer 1
10
152.721000
20
207.118000
11
151.257740
21
201.318166
0
LINE
8
Layer 1
10
151.257740
20
201.318166
11
149.537359
21
195.574266
0
LINE
8
Layer 1
10
149.537359
20
195.574266
11
147.597205
21
189.884951
0
LINE
8
Layer 1
10
147.597205
20
189.884951
11
145.474625
21
184.248875
0
LINE
8
Layer 1
10
145.474625
20
184.248875
11
140.831578
21
173.131047
0
LINE
8
Layer 1
10
140.831578
20
173.131047
11
135.907000
21
162.210000
0
LINE
8
Layer 1
10
135.907000
20
162.210000
11
135.657250
21
165.351875
0
LINE
8
Layer 1
10
135.657250
20
165.351875
11
135.289000
21
168.484000
0
LINE
8
Layer 1
10
135.289000
20
168.484000
11
134.307000
21
177.909000
0
LINE
8
Layer 1
10
134.307000
20
177.909000
11
133.681750
21
185.309250
0
LINE
8
Layer 1
10
133.681750
20
185.309250
11
133.262000
21
192.724000
0
LINE
8
Layer 1
10
133.262000
20
192.724000
11
133.047250
21
200.147750
0
LINE
8
Layer 1
10
133.047250
20
200.147750
11
133.039000
21
207.575000
0
LINE
8
Layer 1
10
133.039000
20
207.575000
11
133.257781
21
214.659531
0
LINE
8
Layer 1
10
133.257781
20
214.659531
11
133.636500
21
221.748000
0
LINE
8
Layer 1
10
133.636500
20
221.748000
11
134.702000
21
235.897000
0
LINE
8
Layer 1
10
134.702000
20
235.897000
11
135.319000
21
242.629000
0
LINE
8
Layer 1
10
135.319000
20
242.629000
11
135.693375
21
245.417750
0
LINE
8
Layer 1
10
135.693375
20
245.417750
11
135.851000
21
248.211000
0
LINE
8
Layer 1
10
135.851000
20
248.211000
11
135.029750
21
245.635938
0
LINE
8
Layer 1
10
135.029750
20
245.635938
11
134.382500
21
242.958500
0
LINE
8
Layer 1
10
134.382500
20
242.958500
11
133.358000
21
237.586000
0
LINE
8
Layer 1
10
133.358000
20
237.586000
11
131.746000
21
227.529000
0
LINE
8
Layer 1
10
131.746000
20
227.529000
11
130.649000
21
217.402000
0
LINE
8
Layer 1
10
130.649000
20
217.402000
11
130.071000
21
207.233000
0
LINE
8
Layer 1
10
130.071000
20
207.233000
11
130.012000
21
197.047000
0
LINE
8
Layer 1
10
130.012000
20
197.047000
11
128.822000
21
198.245000
0
LINE
8
Layer 1
10
128.822000
20
198.245000
11
126.057543
21
201.495998
0
LINE
8
Layer 1
10
126.057543
20
201.495998
11
123.916031
21
204.874297
0
LINE
8
Layer 1
10
123.916031
20
204.874297
11
122.321504
21
208.378104
0
LINE
8
Layer 1
10
122.321504
20
208.378104
11
121.198000
21
212.005625
0
LINE
8
Layer 1
10
121.198000
20
212.005625
11
120.469559
21
215.755068
0
LINE
8
Layer 1
10
120.469559
20
215.755068
11
120.060219
21
219.624641
0
LINE
8
Layer 1
10
120.060219
20
219.624641
11
119.894020
21
223.612549
0
LINE
8
Layer 1
10
119.894020
20
223.612549
11
119.895000
21
227.717000
0
LINE
8
Layer 1
10
119.895000
20
227.717000
11
119.086547
21
225.701500
0
LINE
8
Layer 1
10
119.086547
20
225.701500
11
118.609875
21
223.537500
0
LINE
8
Layer 1
10
118.609875
20
223.537500
11
118.370766
21
221.320250
0
LINE
8
Layer 1
10
118.370766
20
221.320250
11
118.275000
21
219.145000
0
LINE
8
Layer 1
10
118.275000
20
219.145000
11
118.256000
21
218.345000
0
LINE
8
Layer 1
10
118.256000
20
218.345000
11
118.257000
21
217.545000
0
LINE
8
Layer 1
10
118.257000
20
217.545000
11
118.278000
21
216.745000
0
LINE
8
Layer 1
10
118.278000
20
216.745000
11
118.320000
21
215.946000
0
LINE
8
Layer 1
10
118.320000
20
215.946000
11
118.381000
21
215.148000
0
LINE
8
Layer 1
10
118.381000
20
215.148000
11
118.463000
21
214.352000
0
LINE
8
Layer 1
10
118.463000
20
214.352000
11
118.565000
21
213.558000
0
LINE
8
Layer 1
10
118.565000
20
213.558000
11
118.686000
21
212.768000
0
LINE
8
Layer 1
10
118.686000
20
212.768000
11
118.827000
21
211.980000
0
LINE
8
Layer 1
10
118.827000
20
211.980000
11
118.989000
21
211.197000
0
LINE
8
Layer 1
10
118.989000
20
211.197000
11
119.170000
21
210.417000
0
LINE
8
Layer 1
10
119.170000
20
210.417000
11
119.370000
21
209.643000
0
LINE
8
Layer 1
10
119.370000
20
209.643000
11
119.590000
21
208.873000
0
LINE
8
Layer 1
10
119.590000
20
208.873000
11
119.829000
21
208.110000
0
LINE
8
Layer 1
10
119.829000
20
208.110000
11
120.087000
21
207.352000
0
LINE
8
Layer 1
10
120.087000
20
207.352000
11
120.364000
21
206.602000
0
LINE
8
Layer 1
10
120.364000
20
206.602000
11
120.660000
21
205.859000
0
LINE
8
Layer 1
10
120.660000
20
205.859000
11
120.974000
21
205.123000
0
LINE
8
Layer 1
10
120.974000
20
205.123000
11
121.308000
21
204.395000
0
LINE
8
Layer 1
10
121.308000
20
204.395000
11
121.659000
21
203.677000
0
LINE
8
Layer 1
10
121.659000
20
203.677000
11
122.028000
21
202.967000
0
LINE
8
Layer 1
10
122.028000
20
202.967000
11
122.415000
21
202.266000
0
LINE
8
Layer 1
10
122.415000
20
202.266000
11
122.819000
21
201.576000
0
LINE
8
Layer 1
10
122.819000
20
201.576000
11
123.241000
21
200.896000
0
LINE
8
Layer 1
10
123.241000
20
200.896000
11
123.679000
21
200.227000
0
LINE
8
Layer 1
10
123.679000
20
200.227000
11
124.135000
21
199.569000
0
LINE
8
Layer 1
10
124.135000
20
199.569000
11
124.606000
21
198.923000
0
LINE
8
Layer 1
10
124.606000
20
198.923000
11
125.094000
21
198.289000
0
LINE
8
Layer 1
10
125.094000
20
198.289000
11
125.598000
21
197.667000
0
LINE
8
Layer 1
10
125.598000
20
197.667000
11
126.117000
21
197.058000
0
LINE
8
Layer 1
10
126.117000
20
197.058000
11
126.651000
21
196.462000
0
LINE
8
Layer 1
10
126.651000
20
196.462000
11
127.200000
21
195.880000
0
LINE
8
Layer 1
10
127.200000
20
195.880000
11
130.081000
21
192.745000
0
LINE
8
Layer 1
10
130.081000
20
192.745000
11
130.510750
21
187.579500
0
LINE
8
Layer 1
10
130.510750
20
187.579500
11
130.819000
21
182.399000
0
LINE
8
Layer 1
10
130.819000
20
182.399000
11
131.805000
21
171.893000
0
LINE
8
Layer 1
10
131.805000
20
171.893000
11
128.688391
21
173.495578
0
LINE
8
Layer 1
10
128.688391
20
173.495578
11
125.657375
21
175.351375
0
LINE
8
Layer 1
10
125.657375
20
175.351375
11
122.733422
21
177.379484
0
LINE
8
Layer 1
10
122.733422
20
177.379484
11
119.938000
21
179.499000
0
LINE
8
Layer 1
10
119.938000
20
179.499000
11
114.904078
21
183.709094
0
LINE
8
Layer 1
10
114.904078
20
183.709094
11
110.197625
21
188.198750
0
LINE
8
Layer 1
10
110.197625
20
188.198750
11
105.812359
21
193.001531
0
LINE
8
Layer 1
10
105.812359
20
193.001531
11
101.742000
21
198.151000
0
LINE
8
Layer 1
10
101.742000
20
198.151000
11
98.485238
21
202.847000
0
LINE
8
Layer 1
10
98.485238
20
202.847000
11
95.296200
21
207.591000
0
LINE
8
Layer 1
10
95.296200
20
207.591000
11
96.649862
21
204.425879
0
LINE
8
Layer 1
10
96.649862
20
204.425879
11
98.159165
21
201.328982
0
LINE
8
Layer 1
10
98.159165
20
201.328982
11
99.818098
21
198.305700
0
LINE
8
Layer 1
10
99.818098
20
198.305700
11
101.620647
21
195.361422
0
LINE
8
Layer 1
10
101.620647
20
195.361422
11
103.560801
21
192.501536
0
LINE
8
Layer 1
10
103.560801
20
192.501536
11
105.632549
21
189.731432
0
LINE
8
Layer 1
10
105.632549
20
189.731432
11
107.829877
21
187.056498
0
LINE
8
Layer 1
10
107.829877
20
187.056498
11
110.146775
21
184.482125
0
LINE
8
Layer 1
10
110.146775
20
184.482125
11
112.577230
21
182.013701
0
LINE
8
Layer 1
10
112.577230
20
182.013701
11
115.115229
21
179.656615
0
LINE
8
Layer 1
10
115.115229
20
179.656615
11
117.754762
21
177.416257
0
LINE
8
Layer 1
10
117.754762
20
177.416257
11
120.489816
21
175.298016
0
LINE
8
Layer 1
10
120.489816
20
175.298016
11
123.314378
21
173.307280
0
LINE
8
Layer 1
10
123.314378
20
173.307280
11
126.222438
21
171.449439
0
LINE
8
Layer 1
10
126.222438
20
171.449439
11
129.207982
21
169.729883
0
LINE
8
Layer 1
10
129.207982
20
169.729883
11
132.265000
21
168.154000
0
LINE
8
Layer 1
10
132.265000
20
168.154000
11
133.085375
21
160.997250
0
LINE
8
Layer 1
10
133.085375
20
160.997250
11
134.007000
21
153.848000
0
LINE
8
Layer 1
10
134.007000
20
153.848000
11
135.078500
21
142.452000
0
LINE
8
Layer 1
10
135.078500
20
142.452000
11
135.881000
21
131.034000
0
LINE
8
Layer 1
10
135.881000
20
131.034000
11
136.229750
21
126.346250
0
LINE
8
Layer 1
10
136.229750
20
126.346250
11
136.364000
21
121.660000
0
LINE
8
Layer 1
10
136.364000
20
121.660000
11
134.955325
21
123.906544
0
LINE
8
Layer 1
10
134.955325
20
123.906544
11
133.427992
21
126.043340
0
LINE
8
Layer 1
10
133.427992
20
126.043340
11
130.072500
21
130.038906
0
LINE
8
Layer 1
10
130.072500
20
130.038906
11
126.407820
21
133.749145
0
LINE
8
Layer 1
10
126.407820
20
133.749145
11
122.544250
21
137.276500
0
LINE
8
Layer 1
10
122.544250
20
137.276500
11
114.661625
21
144.192344
0
LINE
8
Layer 1
10
114.661625
20
144.192344
11
110.863164
21
147.785723
0
LINE
8
Layer 1
10
110.863164
20
147.785723
11
107.307000
21
151.606000
0
LINE
8
Layer 1
10
107.307000
20
151.606000
11
104.855945
21
154.693141
0
LINE
8
Layer 1
10
104.855945
20
154.693141
11
102.640062
21
157.930375
0
LINE
8
Layer 1
10
102.640062
20
157.930375
11
100.636523
21
161.306172
0
LINE
8
Layer 1
10
100.636523
20
161.306172
11
98.822500
21
164.809000
0
LINE
8
Layer 1
10
98.822500
20
164.809000
11
97.067262
21
168.658500
0
LINE
8
Layer 1
10
97.067262
20
168.658500
11
96.120545
21
170.572938
0
LINE
8
Layer 1
10
96.120545
20
170.572938
11
95.051700
21
172.349000
0
LINE
8
Layer 1
10
95.051700
20
172.349000
11
94.972900
21
172.460000
0
LINE
8
Layer 1
10
94.972900
20
172.460000
11
95.690787
21
168.724996
0
LINE
8
Layer 1
10
95.690787
20
168.724996
11
96.644786
21
165.248719
0
LINE
8
Layer 1
10
96.644786
20
165.248719
11
97.834396
21
161.982770
0
LINE
8
Layer 1
10
97.834396
20
161.982770
11
99.259112
21
158.878750
0
LINE
8
Layer 1
10
99.259112
20
158.878750
11
100.918434
21
155.888262
0
LINE
8
Layer 1
10
100.918434
20
155.888262
11
102.811858
21
152.962906
0
LINE
8
Layer 1
10
102.811858
20
152.962906
11
104.938881
21
150.054285
0
LINE
8
Layer 1
10
104.938881
20
150.054285
11
107.299000
21
147.114000
0
LINE
8
Layer 1
10
107.299000
20
147.114000
11
101.581641
21
148.745953
0
LINE
8
Layer 1
10
101.581641
20
148.745953
11
98.811863
21
149.748803
0
LINE
8
Layer 1
10
98.811863
20
149.748803
11
96.109850
21
150.892875
0
LINE
8
Layer 1
10
96.109850
20
150.892875
11
93.481975
21
152.190650
0
LINE
8
Layer 1
10
93.481975
20
152.190650
11
90.934609
21
153.654609
0
LINE
8
Layer 1
10
90.934609
20
153.654609
11
88.474127
21
155.297232
0
LINE
8
Layer 1
10
88.474127
20
155.297232
11
86.106900
21
157.131000
0
LINE
8
Layer 1
10
86.106900
20
157.131000
11
81.476763
21
161.223000
0
LINE
8
Layer 1
10
81.476763
20
161.223000
11
76.829900
21
165.294000
0
LINE
8
Layer 1
10
76.829900
20
165.294000
11
79.455143
21
161.863732
0
LINE
8
Layer 1
10
79.455143
20
161.863732
11
82.104828
21
158.696609
0
LINE
8
Layer 1
10
82.104828
20
158.696609
11
84.840881
21
155.794025
0
LINE
8
Layer 1
10
84.840881
20
155.794025
11
87.725225
21
153.157375
0
LINE
8
Layer 1
10
87.725225
20
153.157375
11
90.819785
21
150.788053
0
LINE
8
Layer 1
10
90.819785
20
150.788053
11
94.186484
21
148.687453
0
LINE
8
Layer 1
10
94.186484
20
148.687453
11
97.887248
21
146.856971
0
LINE
8
Layer 1
10
97.887248
20
146.856971
11
101.984000
21
145.298000
0
LINE
8
Layer 1
10
101.984000
20
145.298000
11
104.576875
21
144.539750
0
LINE
8
Layer 1
10
104.576875
20
144.539750
11
107.202000
21
143.900000
0
LINE
8
Layer 1
10
107.202000
20
143.900000
11
109.398000
21
143.429875
0
LINE
8
Layer 1
10
109.398000
20
143.429875
11
111.513000
21
142.731000
0
LINE
8
Layer 1
10
111.513000
20
142.731000
11
112.756969
21
141.947859
0
LINE
8
Layer 1
10
112.756969
20
141.947859
11
113.975250
21
140.923875
0
LINE
8
Layer 1
10
113.975250
20
140.923875
11
116.265000
21
138.807000
0
LINE
8
Layer 1
10
116.265000
20
138.807000
11
124.814000
21
131.609500
0
LINE
8
Layer 1
10
124.814000
20
131.609500
11
128.906062
21
127.793813
0
LINE
8
Layer 1
10
128.906062
20
127.793813
11
130.826914
21
125.773492
0
LINE
8
Layer 1
10
130.826914
20
125.773492
11
132.634000
21
123.656000
0
LINE
8
Layer 1
10
132.634000
20
123.656000
11
134.907875
21
120.693375
0
LINE
8
Layer 1
10
134.907875
20
120.693375
11
135.902266
21
119.065016
0
LINE
8
Layer 1
10
135.902266
20
119.065016
11
136.578000
21
117.415000
0
LINE
8
Layer 1
10
136.578000
20
117.415000
11
136.808234
21
115.754906
0
LINE
8
Layer 1
10
136.808234
20
115.754906
11
136.897375
21
113.467250
0
LINE
8
Layer 1
10
136.897375
20
113.467250
11
136.940000
21
109.287000
0
LINE
8
Layer 1
10
136.940000
20
109.287000
11
137.340750
21
96.796225
0
LINE
8
Layer 1
10
137.340750
20
96.796225
11
137.481000
21
84.299900
0
LINE
8
Layer 1
10
137.481000
20
84.299900
11
137.561875
21
78.522725
0
LINE
8
Layer 1
10
137.561875
20
78.522725
11
137.521359
21
75.623534
0
LINE
8
Layer 1
10
137.521359
20
75.623534
11
137.318000
21
72.760100
0
LINE
8
Layer 1
10
137.318000
20
72.760100
11
134.684877
21
78.036028
0
LINE
8
Layer 1
10
134.684877
20
78.036028
11
131.749516
21
83.154230
0
LINE
8
Layer 1
10
131.749516
20
83.154230
11
128.538553
21
88.112970
0
LINE
8
Layer 1
10
128.538553
20
88.112970
11
125.078625
21
92.910512
0
LINE
8
Layer 1
10
125.078625
20
92.910512
11
121.396369
21
97.545122
0
LINE
8
Layer 1
10
121.396369
20
97.545122
11
117.518422
21
102.015064
0
LINE
8
Layer 1
10
117.518422
20
102.015064
11
113.471420
21
106.318602
0
LINE
8
Layer 1
10
113.471420
20
106.318602
11
109.282000
21
110.454000
0
LINE
8
Layer 1
10
109.282000
20
110.454000
11
102.253000
21
116.744000
0
LINE
8
Layer 1
10
102.253000
20
116.744000
11
88.077300
21
129.254000
0
LINE
8
Layer 1
10
88.077300
20
129.254000
11
79.418937
21
137.057250
0
LINE
8
Layer 1
10
79.418937
20
137.057250
11
75.226720
21
141.089562
0
LINE
8
Layer 1
10
75.226720
20
141.089562
11
71.180200
21
145.300000
0
LINE
8
Layer 1
10
71.180200
20
145.300000
11
71.404032
21
149.103881
0
LINE
8
Layer 1
10
71.404032
20
149.103881
11
71.185052
21
153.022734
0
LINE
8
Layer 1
10
71.185052
20
153.022734
11
70.569267
21
156.993127
0
LINE
8
Layer 1
10
70.569267
20
156.993127
11
69.602688
21
160.951625
0
LINE
8
Layer 1
10
69.602688
20
160.951625
11
68.331322
21
164.834795
0
LINE
8
Layer 1
10
68.331322
20
164.834795
11
66.801180
21
168.579203
0
LINE
8
Layer 1
10
66.801180
20
168.579203
11
65.058269
21
172.121416
0
LINE
8
Layer 1
10
65.058269
20
172.121416
11
63.148600
21
175.398000
0
LINE
8
Layer 1
10
63.148600
20
175.398000
11
65.157800
21
169.014000
0
LINE
8
Layer 1
10
65.157800
20
169.014000
11
66.550084
21
163.839703
0
LINE
8
Layer 1
10
66.550084
20
163.839703
11
67.674750
21
158.665125
0
LINE
8
Layer 1
10
67.674750
20
158.665125
11
68.507066
21
153.435984
0
LINE
8
Layer 1
10
68.507066
20
153.435984
11
69.022300
21
148.098000
0
LINE
8
Layer 1
10
69.022300
20
148.098000
11
61.839775
21
155.993750
0
LINE
8
Layer 1
10
61.839775
20
155.993750
11
54.426800
21
163.673000
0
LINE
8
Layer 1
10
54.426800
20
163.673000
11
46.790050
21
171.130500
0
LINE
8
Layer 1
10
46.790050
20
171.130500
11
38.936000
21
178.359000
0
LINE
8
Layer 1
10
38.936000
20
178.359000
11
40.856550
21
175.629125
0
LINE
8
Layer 1
10
40.856550
20
175.629125
11
42.943075
21
173.016250
0
LINE
8
Layer 1
10
42.943075
20
173.016250
11
47.297400
21
167.942000
0
LINE
8
Layer 1
10
47.297400
20
167.942000
11
52.047425
21
162.387750
0
LINE
8
Layer 1
10
52.047425
20
162.387750
11
56.918300
21
156.944000
0
LINE
8
Layer 1
10
56.918300
20
156.944000
11
61.910025
21
151.610750
0
LINE
8
Layer 1
10
61.910025
20
151.610750
11
67.022600
21
146.388000
0
LINE
8
Layer 1
10
67.022600
20
146.388000
11
64.634345
21
146.688383
0
LINE
8
Layer 1
10
64.634345
20
146.688383
11
62.190856
21
147.191875
0
LINE
8
Layer 1
10
62.190856
20
147.191875
11
57.262100
21
148.694750
0
LINE
8
Layer 1
10
57.262100
20
148.694750
11
52.484169
21
150.669750
0
LINE
8
Layer 1
10
52.484169
20
150.669750
11
48.104900
21
152.890000
0
LINE
8
Layer 1
10
48.104900
20
152.890000
11
45.334525
21
154.546375
0
LINE
8
Layer 1
10
45.334525
20
154.546375
11
42.612900
21
156.286000
0
LINE
8
Layer 1
10
42.612900
20
156.286000
11
44.073200
21
154.606000
0
LINE
8
Layer 1
10
44.073200
20
154.606000
11
46.631525
21
152.256215
0
LINE
8
Layer 1
10
46.631525
20
152.256215
11
49.468831
21
150.182219
0
LINE
8
Layer 1
10
49.468831
20
150.182219
11
52.534578
21
148.392801
0
LINE
8
Layer 1
10
52.534578
20
148.392801
11
55.778225
21
146.896750
0
LINE
8
Layer 1
10
55.778225
20
146.896750
11
59.149231
21
145.702855
0
LINE
8
Layer 1
10
59.149231
20
145.702855
11
62.597056
21
144.819906
0
LINE
8
Layer 1
10
62.597056
20
144.819906
11
66.071159
21
144.256691
0
LINE
8
Layer 1
10
66.071159
20
144.256691
11
69.521000
21
144.022000
0
LINE
8
Layer 1
10
69.521000
20
144.022000
11
71.411987
21
142.056250
0
LINE
8
Layer 1
10
71.411987
20
142.056250
11
73.233900
21
140.014000
0
LINE
8
Layer 1
10
73.233900
20
140.014000
11
78.025875
21
134.909625
0
LINE
8
Layer 1
10
78.025875
20
134.909625
11
82.947000
21
129.935000
0
LINE
8
Layer 1
10
82.947000
20
129.935000
11
89.743691
21
123.609469
0
LINE
8
Layer 1
10
89.743691
20
123.609469
11
96.640975
21
117.411250
0
LINE
8
Layer 1
10
96.640975
20
117.411250
11
103.516022
21
111.198406
0
LINE
8
Layer 1
10
103.516022
20
111.198406
11
110.246000
21
104.829000
0
LINE
8
Layer 1
10
110.246000
20
104.829000
11
107.647435
21
105.689002
0
LINE
8
Layer 1
10
107.647435
20
105.689002
11
104.991012
21
106.392266
0
LINE
8
Layer 1
10
104.991012
20
106.392266
11
99.560225
21
107.435125
0
LINE
8
Layer 1
10
99.560225
20
107.435125
11
94.064900
21
108.170672
0
LINE
8
Layer 1
10
94.064900
20
108.170672
11
88.616300
21
108.812000
0
LINE
8
Layer 1
10
88.616300
20
108.812000
11
81.830369
21
109.799379
0
LINE
8
Layer 1
10
81.830369
20
109.799379
11
75.331314
21
111.080969
0
LINE
8
Layer 1
10
75.331314
20
111.080969
11
69.084393
21
112.708824
0
LINE
8
Layer 1
10
69.084393
20
112.708824
11
63.054863
21
114.735000
0
LINE
8
Layer 1
10
63.054863
20
114.735000
11
57.207981
21
117.211551
0
LINE
8
Layer 1
10
57.207981
20
117.211551
11
51.509005
21
120.190531
0
LINE
8
Layer 1
10
51.509005
20
120.190531
11
45.923192
21
123.723996
0
LINE
8
Layer 1
10
45.923192
20
123.723996
11
40.415800
21
127.864000
0
LINE
8
Layer 1
10
40.415800
20
127.864000
11
41.897144
21
125.902447
0
LINE
8
Layer 1
10
41.897144
20
125.902447
11
43.547444
21
124.045578
0
LINE
8
Layer 1
10
43.547444
20
124.045578
11
45.341866
21
122.294951
0
LINE
8
Layer 1
10
45.341866
20
122.294951
11
47.255575
21
120.652125
0
LINE
8
Layer 1
10
47.255575
20
120.652125
11
51.341519
21
117.696109
0
LINE
8
Layer 1
10
51.341519
20
117.696109
11
55.606600
21
115.190000
0
LINE
8
Layer 1
10
55.606600
20
115.190000
11
60.321191
21
112.853906
0
LINE
8
Layer 1
10
60.321191
20
112.853906
11
65.130750
21
110.824000
0
LINE
8
Layer 1
10
65.130750
20
110.824000
11
70.064284
21
109.120344
0
LINE
8
Layer 1
10
70.064284
20
109.120344
11
75.150800
21
107.763000
0
LINE
8
Layer 1
10
75.150800
20
107.763000
11
80.605963
21
106.671875
0
LINE
8
Layer 1
10
80.605963
20
106.671875
11
86.103800
21
105.826000
0
LINE
8
Layer 1
10
86.103800
20
105.826000
11
92.320133
21
105.029672
0
LINE
8
Layer 1
10
92.320133
20
105.029672
11
98.489863
21
104.169125
0
LINE
8
Layer 1
10
98.489863
20
104.169125
11
104.598111
21
102.996766
0
LINE
8
Layer 1
10
104.598111
20
102.996766
11
107.624530
21
102.216283
0
LINE
8
Layer 1
10
107.624530
20
102.216283
11
110.630000
21
101.265000
0
LINE
8
Layer 1
10
110.630000
20
101.265000
11
112.977000
21
100.415975
0
LINE
8
Layer 1
10
112.977000
20
100.415975
11
115.204000
21
99.302800
0
LINE
8
Layer 1
10
115.204000
20
99.302800
11
116.526125
21
98.177388
0
LINE
8
Layer 1
10
116.526125
20
98.177388
11
117.699000
21
96.882400
0
LINE
8
Layer 1
10
117.699000
20
96.882400
11
122.519109
21
91.305223
0
LINE
8
Layer 1
10
122.519109
20
91.305223
11
127.081125
21
85.522463
0
LINE
8
Layer 1
10
127.081125
20
85.522463
11
131.320078
21
79.503920
0
LINE
8
Layer 1
10
131.320078
20
79.503920
11
135.171000
21
73.219400
0
LINE
8
Layer 1
10
135.171000
20
73.219400
11
136.452750
21
70.981275
0
LINE
8
Layer 1
10
136.452750
20
70.981275
11
137.006156
21
69.783003
0
LINE
8
Layer 1
10
137.006156
20
69.783003
11
137.337000
21
68.593900
0
LINE
8
Layer 1
10
137.337000
20
68.593900
11
137.469313
21
66.876569
0
LINE
8
Layer 1
10
137.469313
20
66.876569
11
137.441500
21
64.992100
0
LINE
8
Layer 1
10
137.441500
20
64.992100
11
137.255000
21
61.348600
0
LINE
8
Layer 1
10
137.255000
20
61.348600
11
136.466000
21
43.200300
0
LINE
8
Layer 1
10
136.466000
20
43.200300
11
134.955125
21
47.207962
0
LINE
8
Layer 1
10
134.955125
20
47.207962
11
132.980000
21
51.011100
0
LINE
8
Layer 1
10
132.980000
20
51.011100
11
131.361094
21
53.577109
0
LINE
8
Layer 1
10
131.361094
20
53.577109
11
129.535375
21
56.061144
0
LINE
8
Layer 1
10
129.535375
20
56.061144
11
127.509969
21
58.413375
0
LINE
8
Layer 1
10
127.509969
20
58.413375
11
125.292000
21
60.583975
0
LINE
8
Layer 1
10
125.292000
20
60.583975
11
122.888594
21
62.523116
0
LINE
8
Layer 1
10
122.888594
20
62.523116
11
120.306875
21
64.180969
0
LINE
8
Layer 1
10
120.306875
20
64.180969
11
117.553969
21
65.507706
0
LINE
8
Layer 1
10
117.553969
20
65.507706
11
114.637000
21
66.453500
0
LINE
8
Layer 1
10
114.637000
20
66.453500
11
110.917375
21
67.131550
0
LINE
8
Layer 1
10
110.917375
20
67.131550
11
107.161000
21
67.586400
0
LINE
8
Layer 1
10
107.161000
20
67.586400
11
100.541000
21
68.519600
0
LINE
8
Layer 1
10
100.541000
20
68.519600
11
96.763100
21
69.053700
0
LINE
8
Layer 1
10
96.763100
20
69.053700
11
93.028400
21
69.802300
0
LINE
8
Layer 1
10
93.028400
20
69.802300
11
92.803500
21
69.864500
0
LINE
8
Layer 1
10
92.803500
20
69.864500
11
96.183503
21
68.153800
0
LINE
8
Layer 1
10
96.183503
20
68.153800
11
99.751850
21
66.761850
0
LINE
8
Layer 1
10
99.751850
20
66.761850
11
103.419647
21
65.633825
0
LINE
8
Layer 1
10
103.419647
20
65.633825
11
107.098000
21
64.714900
0
LINE
8
Layer 1
10
107.098000
20
64.714900
11
111.508250
21
63.727925
0
LINE
8
Layer 1
10
111.508250
20
63.727925
11
113.694719
21
63.148759
0
LINE
8
Layer 1
10
113.694719
20
63.148759
11
115.830000
21
62.429400
0
LINE
8
Layer 1
10
115.830000
20
62.429400
11
118.911500
21
61.018206
0
LINE
8
Layer 1
10
118.911500
20
61.018206
11
121.786000
21
59.268425
0
LINE
8
Layer 1
10
121.786000
20
59.268425
11
124.458750
21
57.219131
0
LINE
8
Layer 1
10
124.458750
20
57.219131
11
126.935000
21
54.909400
0
LINE
8
Layer 1
10
126.935000
20
54.909400
11
129.435437
21
52.120731
0
LINE
8
Layer 1
10
129.435437
20
52.120731
11
131.643000
21
49.134850
0
LINE
8
Layer 1
10
131.643000
20
49.134850
11
133.539312
21
45.943094
0
LINE
8
Layer 1
10
133.539312
20
45.943094
11
135.106000
21
42.536800
0
LINE
8
Layer 1
10
135.106000
20
42.536800
11
135.745375
21
40.855987
0
LINE
8
Layer 1
10
135.745375
20
40.855987
11
136.204000
21
39.120200
0
LINE
8
Layer 1
10
136.204000
20
39.120200
11
136.301375
21
36.723537
0
LINE
8
Layer 1
10
136.301375
20
36.723537
11
136.200000
21
34.294700
0
LINE
8
Layer 1
10
136.200000
20
34.294700
11
134.889360
21
36.227701
0
LINE
8
Layer 1
10
134.889360
20
36.227701
11
133.392627
21
37.952938
0
LINE
8
Layer 1
10
133.392627
20
37.952938
11
131.728835
21
39.487746
0
LINE
8
Layer 1
10
131.728835
20
39.487746
11
129.917016
21
40.849461
0
LINE
8
Layer 1
10
129.917016
20
40.849461
11
127.976202
21
42.055419
0
LINE
8
Layer 1
10
127.976202
20
42.055419
11
125.925428
21
43.122956
0
LINE
8
Layer 1
10
125.925428
20
43.122956
11
121.570125
21
44.912112
0
LINE
8
Layer 1
10
121.570125
20
44.912112
11
117.003369
21
46.355617
0
LINE
8
Layer 1
10
117.003369
20
46.355617
11
112.377422
21
47.592158
0
LINE
8
Layer 1
10
112.377422
20
47.592158
11
107.844545
21
48.760423
0
LINE
8
Layer 1
10
107.844545
20
48.760423
11
103.557000
21
49.999100
0
LINE
8
Layer 1
10
103.557000
20
49.999100
11
100.452252
21
51.074739
0
LINE
8
Layer 1
10
100.452252
20
51.074739
11
97.343331
21
52.324802
0
LINE
8
Layer 1
10
97.343331
20
52.324802
11
94.273964
21
53.756591
0
LINE
8
Layer 1
10
94.273964
20
53.756591
11
91.287875
21
55.377412
0
LINE
8
Layer 1
10
91.287875
20
55.377412
11
88.428789
21
57.194570
0
LINE
8
Layer 1
10
88.428789
20
57.194570
11
85.740431
21
59.215367
0
LINE
8
Layer 1
10
85.740431
20
59.215367
11
83.266527
21
61.447109
0
LINE
8
Layer 1
10
83.266527
20
61.447109
11
81.050800
21
63.897100
0
LINE
8
Layer 1
10
81.050800
20
63.897100
11
80.016941
21
65.307784
0
LINE
8
Layer 1
10
80.016941
20
65.307784
11
79.108350
21
66.923200
0
LINE
8
Layer 1
10
79.108350
20
66.923200
11
78.515134
21
68.649691
0
LINE
8
Layer 1
10
78.515134
20
68.649691
11
78.396200
21
69.525321
0
LINE
8
Layer 1
10
78.396200
20
69.525321
11
78.427400
21
70.393600
0
LINE
8
Layer 1
10
78.427400
20
70.393600
11
78.590359
21
71.072459
0
LINE
8
Layer 1
10
78.590359
20
71.072459
11
78.874327
21
71.641199
0
LINE
8
Layer 1
10
78.874327
20
71.641199
11
79.750550
21
72.486509
0
LINE
8
Layer 1
10
79.750550
20
72.486509
11
80.946591
21
73.005903
0
LINE
8
Layer 1
10
80.946591
20
73.005903
11
82.352975
21
73.275750
0
LINE
8
Layer 1
10
82.352975
20
73.275750
11
85.358863
21
73.372291
0
LINE
8
Layer 1
10
85.358863
20
73.372291
11
87.892400
21
73.387100
0
LINE
8
Layer 1
10
87.892400
20
73.387100
11
89.235648
21
73.573653
0
LINE
8
Layer 1
10
89.235648
20
73.573653
11
90.578362
21
73.915025
0
LINE
8
Layer 1
10
90.578362
20
73.915025
11
91.855170
21
74.435684
0
LINE
8
Layer 1
10
91.855170
20
74.435684
11
93.000700
21
75.160100
0
LINE
8
Layer 1
10
93.000700
20
75.160100
11
93.750484
21
75.880034
0
LINE
8
Layer 1
10
93.750484
20
75.880034
11
94.382575
21
76.756025
0
LINE
8
Layer 1
10
94.382575
20
76.756025
11
94.839653
21
77.730528
0
LINE
8
Layer 1
10
94.839653
20
77.730528
11
95.064400
21
78.746000
0
LINE
8
Layer 1
10
95.064400
20
78.746000
11
95.040210
21
80.141413
0
LINE
8
Layer 1
10
95.040210
20
80.141413
11
94.742408
21
81.460650
0
LINE
8
Layer 1
10
94.742408
20
81.460650
11
94.210917
21
82.699243
0
LINE
8
Layer 1
10
94.210917
20
82.699243
11
93.485662
21
83.852725
0
LINE
8
Layer 1
10
93.485662
20
83.852725
11
92.606569
21
84.916629
0
LINE
8
Layer 1
10
92.606569
20
84.916629
11
91.613561
21
85.886488
0
LINE
8
Layer 1
10
91.613561
20
85.886488
11
89.445500
21
87.526200
0
LINE
8
Layer 1
10
89.445500
20
87.526200
11
87.727127
21
88.542584
0
LINE
8
Layer 1
10
87.727127
20
88.542584
11
85.922331
21
89.445413
0
LINE
8
Layer 1
10
85.922331
20
89.445413
11
82.137150
21
90.992475
0
LINE
8
Layer 1
10
82.137150
20
90.992475
11
74.450200
21
93.626700
0
LINE
8
Layer 1
10
74.450200
20
93.626700
11
69.335889
21
95.520927
0
LINE
8
Layer 1
10
69.335889
20
95.520927
11
64.167772
21
97.609023
0
LINE
8
Layer 1
10
64.167772
20
97.609023
11
59.027325
21
99.926224
0
LINE
8
Layer 1
10
59.027325
20
99.926224
11
53.996025
21
102.507762
0
LINE
8
Layer 1
10
53.996025
20
102.507762
11
49.155346
21
105.388875
0
LINE
8
Layer 1
10
49.155346
20
105.388875
11
44.586766
21
108.604795
0
LINE
8
Layer 1
10
44.586766
20
108.604795
11
40.371758
21
112.190759
0
LINE
8
Layer 1
10
40.371758
20
112.190759
11
38.422306
21
114.133518
0
LINE
8
Layer 1
10
38.422306
20
114.133518
11
36.591800
21
116.182000
0
LINE
8
Layer 1
10
36.591800
20
116.182000
11
34.144889
21
119.456187
0
LINE
8
Layer 1
10
34.144889
20
119.456187
11
32.974895
21
121.344625
0
LINE
8
Layer 1
10
32.974895
20
121.344625
11
31.920587
21
123.342750
0
LINE
8
Layer 1
10
31.920587
20
123.342750
11
31.042000
21
125.407156
0
LINE
8
Layer 1
10
31.042000
20
125.407156
11
30.399167
21
127.494438
0
LINE
8
Layer 1
10
30.399167
20
127.494438
11
30.052122
21
129.561187
0
LINE
8
Layer 1
10
30.052122
20
129.561187
11
30.060900
21
131.564000
0
LINE
8
Layer 1
10
30.060900
20
131.564000
11
30.482638
21
133.114500
0
LINE
8
Layer 1
10
30.482638
20
133.114500
11
30.902723
21
133.781375
0
LINE
8
Layer 1
10
30.902723
20
133.781375
11
31.484800
21
134.359000
0
LINE
8
Layer 1
10
31.484800
20
134.359000
11
32.520563
21
134.968307
0
LINE
8
Layer 1
10
32.520563
20
134.968307
11
33.664217
21
135.296891
0
LINE
8
Layer 1
10
33.664217
20
135.296891
11
34.884735
21
135.400873
0
LINE
8
Layer 1
10
34.884735
20
135.400873
11
36.151088
21
135.336375
0
LINE
8
Layer 1
10
36.151088
20
135.336375
11
38.697189
21
134.926422
0
LINE
8
Layer 1
10
38.697189
20
134.926422
11
41.054300
21
134.516000
0
LINE
8
Layer 1
10
41.054300
20
134.516000
11
42.502383
21
134.403406
0
LINE
8
Layer 1
10
42.502383
20
134.403406
11
44.024912
21
134.461250
0
LINE
8
Layer 1
10
44.024912
20
134.461250
11
45.484536
21
134.792469
0
LINE
8
Layer 1
10
45.484536
20
134.792469
11
46.743900
21
135.500000
0
LINE
8
Layer 1
10
46.743900
20
135.500000
11
47.223429
21
136.004873
0
LINE
8
Layer 1
10
47.223429
20
136.004873
11
47.565698
21
136.583797
0
LINE
8
Layer 1
10
47.565698
20
136.583797
11
47.902987
21
137.893625
0
LINE
8
Layer 1
10
47.902987
20
137.893625
11
47.884833
21
139.289141
0
LINE
8
Layer 1
10
47.884833
20
139.289141
11
47.640300
21
140.630000
0
LINE
8
Layer 1
10
47.640300
20
140.630000
11
47.247489
21
141.862016
0
LINE
8
Layer 1
10
47.247489
20
141.862016
11
46.714061
21
143.039375
0
LINE
8
Layer 1
10
46.714061
20
143.039375
11
45.331587
21
145.256000
0
LINE
8
Layer 1
10
45.331587
20
145.256000
11
42.047800
21
149.318000
0
LINE
8
Layer 1
10
42.047800
20
149.318000
11
38.964028
21
153.356607
0
LINE
8
Layer 1
10
38.964028
20
153.356607
11
36.384045
21
157.348234
0
LINE
8
Layer 1
10
36.384045
20
157.348234
11
34.293019
21
161.360088
0
LINE
8
Layer 1
10
34.293019
20
161.360088
11
32.676112
21
165.459375
0
LINE
8
Layer 1
10
32.676112
20
165.459375
11
31.518492
21
169.713303
0
LINE
8
Layer 1
10
31.518492
20
169.713303
11
30.805323
21
174.189078
0
LINE
8
Layer 1
10
30.805323
20
174.189078
11
30.521771
21
178.953908
0
LINE
8
Layer 1
10
30.521771
20
178.953908
11
30.653000
21
184.075000
0
LINE
8
Layer 1
10
30.653000
20
184.075000
11
33.710828
21
185.319125
0
LINE
8
Layer 1
10
33.710828
20
185.319125
11
36.985875
21
186.147750
0
LINE
8
Layer 1
10
36.985875
20
186.147750
11
40.340459
21
186.619750
0
LINE
8
Layer 1
10
40.340459
20
186.619750
11
43.636900
21
186.794000
0
LINE
8
Layer 1
10
43.636900
20
186.794000
11
46.913866
21
186.678266
0
LINE
8
Layer 1
10
46.913866
20
186.678266
11
50.113100
21
186.250437
0
LINE
8
Layer 1
10
50.113100
20
186.250437
11
53.229965
21
185.529078
0
LINE
8
Layer 1
10
53.229965
20
185.529078
11
56.259825
21
184.532750
0
LINE
8
Layer 1
10
56.259825
20
184.532750
11
59.198045
21
183.280016
0
LINE
8
Layer 1
10
59.198045
20
183.280016
11
62.039988
21
181.789437
0
LINE
8
Layer 1
10
62.039988
20
181.789437
11
64.781018
21
180.079578
0
LINE
8
Layer 1
10
64.781018
20
180.079578
11
67.416500
21
178.169000
0
LINE
8
Layer 1
10
67.416500
20
178.169000
11
70.309820
21
175.943250
0
LINE
8
Layer 1
10
70.309820
20
175.943250
11
73.374638
21
173.780500
0
LINE
8
Layer 1
10
73.374638
20
173.780500
11
76.605486
21
171.914000
0
LINE
8
Layer 1
10
76.605486
20
171.914000
11
78.281464
21
171.164734
0
LINE
8
Layer 1
10
78.281464
20
171.164734
11
79.996900
21
170.577000
0
LINE
8
Layer 1
10
79.996900
20
170.577000
11
82.001820
21
170.157297
0
LINE
8
Layer 1
10
82.001820
20
170.157297
11
84.049312
21
170.068625
0
LINE
8
Layer 1
10
84.049312
20
170.068625
11
86.058948
21
170.383641
0
LINE
8
Layer 1
10
86.058948
20
170.383641
11
87.950300
21
171.175000
0
LINE
8
Layer 1
10
87.950300
20
171.175000
11
89.141380
21
172.050125
0
LINE
8
Layer 1
10
89.141380
20
172.050125
11
90.078913
21
173.118750
0
LINE
8
Layer 1
10
90.078913
20
173.118750
11
90.774064
21
174.361000
0
LINE
8
Layer 1
10
90.774064
20
174.361000
11
91.238000
21
175.757000
0
LINE
8
Layer 1
10
91.238000
20
175.757000
11
91.494179
21
177.183271
0
LINE
8
Layer 1
10
91.494179
20
177.183271
11
91.585897
21
178.599492
0
LINE
8
Layer 1
10
91.585897
20
178.599492
11
91.342441
21
181.402750
0
LINE
8
Layer 1
10
91.342441
20
181.402750
11
90.640607
21
184.168695
0
LINE
8
Layer 1
10
90.640607
20
184.168695
11
89.613375
21
186.899250
0
LINE
8
Layer 1
10
89.613375
20
186.899250
11
87.114622
21
192.261875
0
LINE
8
Layer 1
10
87.114622
20
192.261875
11
85.909056
21
194.897789
0
LINE
8
Layer 1
10
85.909056
20
194.897789
11
84.910000
21
197.506000
0
LINE
8
Layer 1
10
84.910000
20
197.506000
11
83.963798
21
201.036063
0
LINE
8
Layer 1
10
83.963798
20
201.036063
11
83.381788
21
204.839500
0
LINE
8
Layer 1
10
83.381788
20
204.839500
11
83.288383
21
208.672187
0
LINE
8
Layer 1
10
83.288383
20
208.672187
11
83.463788
21
210.523211
0
LINE
8
Layer 1
10
83.463788
20
210.523211
11
83.808000
21
212.290000
0
LINE
8
Layer 1
10
83.808000
20
212.290000
11
84.371411
21
214.147531
0
LINE
8
Layer 1
10
84.371411
20
214.147531
11
85.179088
21
215.937000
0
LINE
8
Layer 1
10
85.179088
20
215.937000
11
86.306695
21
217.514219
0
LINE
8
Layer 1
10
86.306695
20
217.514219
11
87.014119
21
218.178176
0
LINE
8
Layer 1
10
87.014119
20
218.178176
11
87.829900
21
218.735000
0
LINE
8
Layer 1
10
87.829900
20
218.735000
11
88.905157
21
219.198413
0
LINE
8
Layer 1
10
88.905157
20
219.198413
11
89.964914
21
219.376629
0
LINE
8
Layer 1
10
89.964914
20
219.376629
11
91.010559
21
219.302804
0
LINE
8
Layer 1
10
91.010559
20
219.302804
11
92.043480
21
219.010094
0
LINE
8
Layer 1
10
92.043480
20
219.010094
11
94.076696
21
217.900637
0
LINE
8
Layer 1
10
94.076696
20
217.900637
11
96.075662
21
216.313500
0
LINE
8
Layer 1
10
96.075662
20
216.313500
11
100.015239
21
212.767156
0
LINE
8
Layer 1
10
100.015239
20
212.767156
11
101.978047
21
211.338434
0
LINE
8
Layer 1
10
101.978047
20
211.338434
11
102.962562
21
210.826228
0
LINE
8
Layer 1
10
102.962562
20
210.826228
11
103.951000
21
210.493000
0
LINE
8
Layer 1
10
103.951000
20
210.493000
11
104.981578
21
210.353469
0
LINE
8
Layer 1
10
104.981578
20
210.353469
11
105.984875
21
210.423000
0
LINE
8
Layer 1
10
105.984875
20
210.423000
11
106.951234
21
210.700281
0
LINE
8
Layer 1
10
106.951234
20
210.700281
11
107.871000
21
211.184000
0
LINE
8
Layer 1
10
107.871000
20
211.184000
11
109.205588
21
212.297232
0
LINE
8
Layer 1
10
109.205588
20
212.297232
11
110.249703
21
213.642859
0
LINE
8
Layer 1
10
110.249703
20
213.642859
11
111.046998
21
215.169400
0
LINE
8
Layer 1
10
111.046998
20
215.169400
11
111.641125
21
216.825375
0
LINE
8
Layer 1
10
111.641125
20
216.825375
11
112.394484
21
220.319703
0
LINE
8
Layer 1
10
112.394484
20
220.319703
11
112.859000
21
223.714000
0
LINE
8
Layer 1
10
112.859000
20
223.714000
11
113.943000
21
230.577000
0
LINE
8
Layer 1
10
113.943000
20
230.577000
11
114.675939
21
233.852219
0
LINE
8
Layer 1
10
114.675939
20
233.852219
11
115.591891
21
237.115813
0
LINE
8
Layer 1
10
115.591891
20
237.115813
11
116.707178
21
240.331313
0
LINE
8
Layer 1
10
116.707178
20
240.331313
11
118.038125
21
243.462250
0
LINE
8
Layer 1
10
118.038125
20
243.462250
11
119.601057
21
246.472156
0
LINE
8
Layer 1
10
119.601057
20
246.472156
11
121.412297
21
249.324563
0
LINE
8
Layer 1
10
121.412297
20
249.324563
11
123.488170
21
251.983000
0
LINE
8
Layer 1
10
123.488170
20
251.983000
11
125.845000
21
254.411000
0
LINE
8
Layer 1
10
125.845000
20
254.411000
11
128.091453
21
256.317844
0
LINE
8
Layer 1
10
128.091453
20
256.317844
11
130.459875
21
258.085750
0
LINE
8
Layer 1
10
130.459875
20
258.085750
11
135.347000
21
261.402000
0
LINE
8
Layer 1
10
135.347000
20
261.402000
11
135.347000
21
261.402000
 0 
ENDSEC
 0 
EOF