999
"DXF R12 Output" (www.mydxf.blogspot.com)
 0 
SECTION
 2 
HEADER
 9 
$ACADVER
 1 
AC1009
 9 
$EXTMIN
 10 
 0 
 20 
 0 
 9 
$EXTMAX
 10 
 8.5 
 20 
 11 
 0 
ENDSEC
 0 
SECTION
 2 
ENTITIES
0
LINE
8
Layer 1
10
131.317000
20
167.979000
11
133.914296
21
166.402680
0
LINE
8
Layer 1
10
133.914296
20
166.402680
11
136.517190
21
165.099168
0
LINE
8
Layer 1
10
136.517190
20
165.099168
11
139.115351
21
164.058217
0
LINE
8
Layer 1
10
139.115351
20
164.058217
11
141.698447
21
163.269579
0
LINE
8
Layer 1
10
141.698447
20
163.269579
11
144.256146
21
162.723003
0
LINE
8
Layer 1
10
144.256146
20
162.723003
11
146.778116
21
162.408244
0
LINE
8
Layer 1
10
146.778116
20
162.408244
11
149.254027
21
162.315052
0
LINE
8
Layer 1
10
149.254027
20
162.315052
11
151.673545
21
162.433178
0
LINE
8
Layer 1
10
151.673545
20
162.433178
11
154.026340
21
162.752375
0
LINE
8
Layer 1
10
154.026340
20
162.752375
11
156.302080
21
163.262395
0
LINE
8
Layer 1
10
156.302080
20
163.262395
11
158.490433
21
163.952988
0
LINE
8
Layer 1
10
158.490433
20
163.952988
11
160.581068
21
164.813907
0
LINE
8
Layer 1
10
160.581068
20
164.813907
11
162.563652
21
165.834904
0
LINE
8
Layer 1
10
162.563652
20
165.834904
11
164.427855
21
167.005730
0
LINE
8
Layer 1
10
164.427855
20
167.005730
11
166.163344
21
168.316136
0
LINE
8
Layer 1
10
166.163344
20
168.316136
11
167.759788
21
169.755875
0
LINE
8
Layer 1
10
167.759788
20
169.755875
11
169.206854
21
171.314698
0
LINE
8
Layer 1
10
169.206854
20
171.314698
11
170.494213
21
172.982357
0
LINE
8
Layer 1
10
170.494213
20
172.982357
11
171.611531
21
174.748604
0
LINE
8
Layer 1
10
171.611531
20
174.748604
11
172.548478
21
176.603189
0
LINE
8
Layer 1
10
172.548478
20
176.603189
11
173.294720
21
178.535866
0
LINE
8
Layer 1
10
173.294720
20
178.535866
11
173.839928
21
180.536386
0
LINE
8
Layer 1
10
173.839928
20
180.536386
11
174.173769
21
182.594500
0
LINE
8
Layer 1
10
174.173769
20
182.594500
11
174.285911
21
184.699959
0
LINE
8
Layer 1
10
174.285911
20
184.699959
11
174.166023
21
186.842517
0
LINE
8
Layer 1
10
174.166023
20
186.842517
11
173.803773
21
189.011924
0
LINE
8
Layer 1
10
173.803773
20
189.011924
11
173.188829
21
191.197932
0
LINE
8
Layer 1
10
173.188829
20
191.197932
11
172.310861
21
193.390293
0
LINE
8
Layer 1
10
172.310861
20
193.390293
11
171.159535
21
195.578759
0
LINE
8
Layer 1
10
171.159535
20
195.578759
11
169.724521
21
197.753081
0
LINE
8
Layer 1
10
169.724521
20
197.753081
11
167.995486
21
199.903011
0
LINE
8
Layer 1
10
167.995486
20
199.903011
11
165.962100
21
202.018300
0
LINE
8
Layer 1
10
165.962100
20
202.018300
11
162.939320
21
204.542674
0
LINE
8
Layer 1
10
162.939320
20
204.542674
11
159.632470
21
206.635827
0
LINE
8
Layer 1
10
159.632470
20
206.635827
11
156.079450
21
208.310840
0
LINE
8
Layer 1
10
156.079450
20
208.310840
11
152.318156
21
209.580792
0
LINE
8
Layer 1
10
152.318156
20
209.580792
11
148.386489
21
210.458763
0
LINE
8
Layer 1
10
148.386489
20
210.458763
11
144.322345
21
210.957833
0
LINE
8
Layer 1
10
144.322345
20
210.957833
11
140.163625
21
211.091081
0
LINE
8
Layer 1
10
140.163625
20
211.091081
11
135.948225
21
210.871588
0
LINE
8
Layer 1
10
135.948225
20
210.871588
11
131.714045
21
210.312432
0
LINE
8
Layer 1
10
131.714045
20
210.312432
11
127.498983
21
209.426694
0
LINE
8
Layer 1
10
127.498983
20
209.426694
11
123.340937
21
208.227453
0
LINE
8
Layer 1
10
123.340937
20
208.227453
11
119.277806
21
206.727789
0
LINE
8
Layer 1
10
119.277806
20
206.727789
11
115.347489
21
204.940782
0
LINE
8
Layer 1
10
115.347489
20
204.940782
11
111.587883
21
202.879512
0
LINE
8
Layer 1
10
111.587883
20
202.879512
11
108.036887
21
200.557058
0
LINE
8
Layer 1
10
108.036887
20
200.557058
11
104.732400
21
197.986500
0
LINE
8
Layer 1
10
104.732400
20
197.986500
11
101.353227
21
194.853976
0
LINE
8
Layer 1
10
101.353227
20
194.853976
11
98.358301
21
191.532835
0
LINE
8
Layer 1
10
98.358301
20
191.532835
11
95.755786
21
188.048121
0
LINE
8
Layer 1
10
95.755786
20
188.048121
11
93.553847
21
184.424877
0
LINE
8
Layer 1
10
93.553847
20
184.424877
11
91.760647
21
180.688143
0
LINE
8
Layer 1
10
91.760647
20
180.688143
11
90.384350
21
176.862964
0
LINE
8
Layer 1
10
90.384350
20
176.862964
11
89.433122
21
172.974381
0
LINE
8
Layer 1
10
89.433122
20
172.974381
11
88.915125
21
169.047438
0
LINE
8
Layer 1
10
88.915125
20
169.047438
11
88.838524
21
165.107176
0
LINE
8
Layer 1
10
88.838524
20
165.107176
11
89.211484
21
161.178638
0
LINE
8
Layer 1
10
89.211484
20
161.178638
11
90.042168
21
157.286867
0
LINE
8
Layer 1
10
90.042168
20
157.286867
11
91.338741
21
153.456905
0
LINE
8
Layer 1
10
91.338741
20
153.456905
11
93.109366
21
149.713795
0
LINE
8
Layer 1
10
93.109366
20
149.713795
11
95.362208
21
146.082579
0
LINE
8
Layer 1
10
95.362208
20
146.082579
11
98.105431
21
142.588300
0
LINE
8
Layer 1
10
98.105431
20
142.588300
11
101.347200
21
139.256000
0
LINE
8
Layer 1
10
101.347200
20
139.256000
11
97.490413
21
138.275225
0
LINE
8
Layer 1
10
97.490413
20
138.275225
11
93.887311
21
137.136753
0
LINE
8
Layer 1
10
93.887311
20
137.136753
11
90.250300
21
135.644000
0
LINE
8
Layer 1
10
90.250300
20
135.644000
11
88.759664
21
135.064892
0
LINE
8
Layer 1
10
88.759664
20
135.064892
11
88.183399
21
134.984070
0
LINE
8
Layer 1
10
88.183399
20
134.984070
11
87.751363
21
135.071413
0
LINE
8
Layer 1
10
87.751363
20
135.071413
11
87.487199
21
135.348679
0
LINE
8
Layer 1
10
87.487199
20
135.348679
11
87.414555
21
135.837627
0
LINE
8
Layer 1
10
87.414555
20
135.837627
11
87.557073
21
136.560014
0
LINE
8
Layer 1
10
87.557073
20
136.560014
11
87.938400
21
137.537600
0
LINE
8
Layer 1
10
87.938400
20
137.537600
11
88.456435
21
138.865003
0
LINE
8
Layer 1
10
88.456435
20
138.865003
11
88.837521
21
140.266698
0
LINE
8
Layer 1
10
88.837521
20
140.266698
11
89.205622
21
143.234323
0
LINE
8
Layer 1
10
89.205622
20
143.234323
11
89.076243
21
146.323184
0
LINE
8
Layer 1
10
89.076243
20
146.323184
11
88.482925
21
149.415987
0
LINE
8
Layer 1
10
88.482925
20
149.415987
11
87.459211
21
152.395443
0
LINE
8
Layer 1
10
87.459211
20
152.395443
11
86.038641
21
155.144258
0
LINE
8
Layer 1
10
86.038641
20
155.144258
11
84.254757
21
157.545141
0
LINE
8
Layer 1
10
84.254757
20
157.545141
11
83.237054
21
158.578454
0
LINE
8
Layer 1
10
83.237054
20
158.578454
11
82.141100
21
159.480800
0
LINE
8
Layer 1
10
82.141100
20
159.480800
11
82.656053
21
160.711244
0
LINE
8
Layer 1
10
82.656053
20
160.711244
11
83.054154
21
162.116696
0
LINE
8
Layer 1
10
83.054154
20
162.116696
11
83.327700
21
163.931100
0
LINE
8
Layer 1
10
83.327700
20
163.931100
11
83.312965
21
166.066054
0
LINE
8
Layer 1
10
83.312965
20
166.066054
11
82.846222
21
168.433156
0
LINE
8
Layer 1
10
82.846222
20
168.433156
11
82.392182
21
169.676138
0
LINE
8
Layer 1
10
82.392182
20
169.676138
11
81.763743
21
170.944005
0
LINE
8
Layer 1
10
81.763743
20
170.944005
11
80.940437
21
172.225710
0
LINE
8
Layer 1
10
80.940437
20
172.225710
11
79.901800
21
173.510200
0
LINE
8
Layer 1
10
79.901800
20
173.510200
11
78.804644
21
172.956914
0
LINE
8
Layer 1
10
78.804644
20
172.956914
11
77.667255
21
172.209269
0
LINE
8
Layer 1
10
77.667255
20
172.209269
11
76.345375
21
171.097812
0
LINE
8
Layer 1
10
76.345375
20
171.097812
11
74.995042
21
169.585185
0
LINE
8
Layer 1
10
74.995042
20
169.585185
11
73.772294
21
167.634030
0
LINE
8
Layer 1
10
73.772294
20
167.634030
11
72.833167
21
165.206987
0
LINE
8
Layer 1
10
72.833167
20
165.206987
11
72.518724
21
163.803334
0
LINE
8
Layer 1
10
72.518724
20
163.803334
11
72.333700
21
162.266700
0
LINE
8
Layer 1
10
72.333700
20
162.266700
11
68.388300
21
162.206000
0
LINE
8
Layer 1
10
68.388300
20
162.206000
11
67.967198
21
163.481586
0
LINE
8
Layer 1
10
67.967198
20
163.481586
11
67.402415
21
164.846679
0
LINE
8
Layer 1
10
67.402415
20
164.846679
11
66.567338
21
166.492738
0
LINE
8
Layer 1
10
66.567338
20
166.492738
11
65.436362
21
168.266835
0
LINE
8
Layer 1
10
65.436362
20
168.266835
11
63.983883
21
170.016045
0
LINE
8
Layer 1
10
63.983883
20
170.016045
11
62.184297
21
171.587442
0
LINE
8
Layer 1
10
62.184297
20
171.587442
11
60.012000
21
172.828100
0
LINE
8
Layer 1
10
60.012000
20
172.828100
11
59.419256
21
171.777267
0
LINE
8
Layer 1
10
59.419256
20
171.777267
11
58.843702
21
170.523476
0
LINE
8
Layer 1
10
58.843702
20
170.523476
11
58.229025
21
168.837212
0
LINE
8
Layer 1
10
58.229025
20
168.837212
11
57.685477
21
166.758310
0
LINE
8
Layer 1
10
57.685477
20
166.758310
11
57.323306
21
164.326602
0
LINE
8
Layer 1
10
57.323306
20
164.326602
11
57.252764
21
161.581921
0
LINE
8
Layer 1
10
57.252764
20
161.581921
11
57.584100
21
158.564100
0
LINE
8
Layer 1
10
57.584100
20
158.564100
11
54.628908
21
156.067454
0
LINE
8
Layer 1
10
54.628908
20
156.067454
11
52.345986
21
153.466078
0
LINE
8
Layer 1
10
52.345986
20
153.466078
11
50.569931
21
150.783350
0
LINE
8
Layer 1
10
50.569931
20
150.783350
11
49.135338
21
148.042650
0
LINE
8
Layer 1
10
49.135338
20
148.042650
11
46.628920
21
142.480847
0
LINE
8
Layer 1
10
46.628920
20
142.480847
11
45.226288
21
139.706502
0
LINE
8
Layer 1
10
45.226288
20
139.706502
11
43.503500
21
136.967700
0
LINE
8
Layer 1
10
43.503500
20
136.967700
11
42.094061
21
136.915685
0
LINE
8
Layer 1
10
42.094061
20
136.915685
11
41.163542
21
136.428506
0
LINE
8
Layer 1
10
41.163542
20
136.428506
11
40.654981
21
135.627087
0
LINE
8
Layer 1
10
40.654981
20
135.627087
11
40.511413
21
134.632350
0
LINE
8
Layer 1
10
40.511413
20
134.632350
11
40.675874
21
133.565220
0
LINE
8
Layer 1
10
40.675874
20
133.565220
11
41.091402
21
132.546619
0
LINE
8
Layer 1
10
41.091402
20
132.546619
11
41.701031
21
131.697471
0
LINE
8
Layer 1
10
41.701031
20
131.697471
11
42.447800
21
131.138700
0
LINE
8
Layer 1
10
42.447800
20
131.138700
11
42.659570
21
130.433028
0
LINE
8
Layer 1
10
42.659570
20
130.433028
11
43.053449
21
129.636983
0
LINE
8
Layer 1
10
43.053449
20
129.636983
11
43.754138
21
128.621950
0
LINE
8
Layer 1
10
43.754138
20
128.621950
11
44.847746
21
127.445292
0
LINE
8
Layer 1
10
44.847746
20
127.445292
11
46.420386
21
126.164372
0
LINE
8
Layer 1
10
46.420386
20
126.164372
11
48.558167
21
124.836554
0
LINE
8
Layer 1
10
48.558167
20
124.836554
11
51.347200
21
123.519200
0
LINE
8
Layer 1
10
51.347200
20
123.519200
11
55.034400
21
122.276662
0
LINE
8
Layer 1
10
55.034400
20
122.276662
11
58.748900
21
121.598200
0
LINE
8
Layer 1
10
58.748900
20
121.598200
11
61.753895
21
121.347561
0
LINE
8
Layer 1
10
61.753895
20
121.347561
11
63.112689
21
121.161118
0
LINE
8
Layer 1
10
63.112689
20
121.161118
11
64.313813
21
120.821887
0
LINE
8
Layer 1
10
64.313813
20
120.821887
11
65.310866
21
120.245840
0
LINE
8
Layer 1
10
65.310866
20
120.245840
11
66.057448
21
119.348945
0
LINE
8
Layer 1
10
66.057448
20
119.348945
11
66.507160
21
118.047175
0
LINE
8
Layer 1
10
66.507160
20
118.047175
11
66.613600
21
116.256500
0
LINE
8
Layer 1
10
66.613600
20
116.256500
11
66.197523
21
112.596245
0
LINE
8
Layer 1
10
66.197523
20
112.596245
11
65.260413
21
108.565312
0
LINE
8
Layer 1
10
65.260413
20
108.565312
11
63.879245
21
104.607898
0
LINE
8
Layer 1
10
63.879245
20
104.607898
11
63.046196
21
102.795572
0
LINE
8
Layer 1
10
63.046196
20
102.795572
11
62.131000
21
101.168200
0
LINE
8
Layer 1
10
62.131000
20
101.168200
11
61.020502
21
99.704548
0
LINE
8
Layer 1
10
61.020502
20
99.704548
11
59.487838
21
97.891462
0
LINE
8
Layer 1
10
59.487838
20
97.891462
11
57.995880
21
96.038945
0
LINE
8
Layer 1
10
57.995880
20
96.038945
11
57.007500
21
94.457000
0
LINE
8
Layer 1
10
57.007500
20
94.457000
11
56.821335
21
93.808800
0
LINE
8
Layer 1
10
56.821335
20
93.808800
11
56.816020
21
93.179253
0
LINE
8
Layer 1
10
56.816020
20
93.179253
11
56.971611
21
92.580630
0
LINE
8
Layer 1
10
56.971611
20
92.580630
11
57.268163
21
92.025200
0
LINE
8
Layer 1
10
57.268163
20
92.025200
11
58.204373
21
91.092997
0
LINE
8
Layer 1
10
58.204373
20
91.092997
11
59.465100
21
90.480800
0
LINE
8
Layer 1
10
59.465100
20
90.480800
11
61.095369
21
90.192009
0
LINE
8
Layer 1
10
61.095369
20
90.192009
11
63.049600
21
90.206425
0
LINE
8
Layer 1
10
63.049600
20
90.206425
11
64.924556
21
90.619428
0
LINE
8
Layer 1
10
64.924556
20
90.619428
11
65.706295
21
91.005207
0
LINE
8
Layer 1
10
65.706295
20
91.005207
11
66.317000
21
91.526400
0
LINE
8
Layer 1
10
66.317000
20
91.526400
11
66.727055
21
92.368287
0
LINE
8
Layer 1
10
66.727055
20
92.368287
11
67.111338
21
93.659350
0
LINE
8
Layer 1
10
67.111338
20
93.659350
11
67.719600
21
96.006200
0
LINE
8
Layer 1
10
67.719600
20
96.006200
11
68.737556
21
98.535795
0
LINE
8
Layer 1
10
68.737556
20
98.535795
11
70.394850
21
101.834037
0
LINE
8
Layer 1
10
70.394850
20
101.834037
11
71.358588
21
103.433787
0
LINE
8
Layer 1
10
71.358588
20
103.433787
11
72.356569
21
104.820561
0
LINE
8
Layer 1
10
72.356569
20
104.820561
11
73.346927
21
105.859314
0
LINE
8
Layer 1
10
73.346927
20
105.859314
11
74.287800
21
106.415000
0
LINE
8
Layer 1
10
74.287800
20
106.415000
11
74.306523
21
105.066912
0
LINE
8
Layer 1
10
74.306523
20
105.066912
11
74.109294
21
103.420792
0
LINE
8
Layer 1
10
74.109294
20
103.420792
11
73.193575
21
99.696712
0
LINE
8
Layer 1
10
73.193575
20
99.696712
11
71.793844
21
96.167277
0
LINE
8
Layer 1
10
71.793844
20
96.167277
11
70.991598
21
94.764461
0
LINE
8
Layer 1
10
70.991598
20
94.764461
11
70.163300
21
93.757000
0
LINE
8
Layer 1
10
70.163300
20
93.757000
11
69.381404
21
92.827763
0
LINE
8
Layer 1
10
69.381404
20
92.827763
11
69.097513
21
92.004581
0
LINE
8
Layer 1
10
69.097513
20
92.004581
11
69.233959
21
91.290684
0
LINE
8
Layer 1
10
69.233959
20
91.290684
11
69.713075
21
90.689300
0
LINE
8
Layer 1
10
69.713075
20
90.689300
11
70.457195
21
90.203660
0
LINE
8
Layer 1
10
70.457195
20
90.203660
11
71.388650
21
89.836994
0
LINE
8
Layer 1
10
71.388650
20
89.836994
11
73.502900
21
89.473500
0
LINE
8
Layer 1
10
73.502900
20
89.473500
11
75.225731
21
89.525623
0
LINE
8
Layer 1
10
75.225731
20
89.525623
11
76.911325
21
89.908637
0
LINE
8
Layer 1
10
76.911325
20
89.908637
11
78.377581
21
90.700383
0
LINE
8
Layer 1
10
78.377581
20
90.700383
11
78.971552
21
91.273855
0
LINE
8
Layer 1
10
78.971552
20
91.273855
11
79.442400
21
91.978700
0
LINE
8
Layer 1
10
79.442400
20
91.978700
11
79.938470
21
93.376675
0
LINE
8
Layer 1
10
79.938470
20
93.376675
11
80.298050
21
95.185722
0
LINE
8
Layer 1
10
80.298050
20
95.185722
11
80.921650
21
99.375375
0
LINE
8
Layer 1
10
80.921650
20
99.375375
11
81.342627
21
101.425151
0
LINE
8
Layer 1
10
81.342627
20
101.425151
11
81.941025
21
103.224341
0
LINE
8
Layer 1
10
81.941025
20
103.224341
11
82.795323
21
104.607529
0
LINE
8
Layer 1
10
82.795323
20
104.607529
11
83.342960
21
105.091430
0
LINE
8
Layer 1
10
83.342960
20
105.091430
11
83.984000
21
105.409300
0
LINE
8
Layer 1
10
83.984000
20
105.409300
11
85.863030
21
105.266498
0
LINE
8
Layer 1
10
85.863030
20
105.266498
11
89.623238
21
104.669562
0
LINE
8
Layer 1
10
89.623238
20
104.669562
11
97.995100
21
103.234200
0
LINE
8
Layer 1
10
97.995100
20
103.234200
11
105.884450
21
102.166600
0
LINE
8
Layer 1
10
105.884450
20
102.166600
11
109.895266
21
101.894831
0
LINE
8
Layer 1
10
109.895266
20
101.894831
11
113.720100
21
101.955500
0
LINE
8
Layer 1
10
113.720100
20
101.955500
11
115.557500
21
100.013000
0
LINE
8
Layer 1
10
115.557500
20
100.013000
11
114.424603
21
100.103031
0
LINE
8
Layer 1
10
114.424603
20
100.103031
11
111.658900
21
100.178175
0
LINE
8
Layer 1
10
111.658900
20
100.178175
11
108.209872
21
99.946006
0
LINE
8
Layer 1
10
108.209872
20
99.946006
11
106.525824
21
99.623297
0
LINE
8
Layer 1
10
106.525824
20
99.623297
11
105.027000
21
99.114100
0
LINE
8
Layer 1
10
105.027000
20
99.114100
11
103.446102
21
98.189795
0
LINE
8
Layer 1
10
103.446102
20
98.189795
11
101.913588
21
96.875912
0
LINE
8
Layer 1
10
101.913588
20
96.875912
11
100.638530
21
95.289423
0
LINE
8
Layer 1
10
100.638530
20
95.289423
11
99.830000
21
93.547300
0
LINE
8
Layer 1
10
99.830000
20
93.547300
11
99.603602
21
92.508369
0
LINE
8
Layer 1
10
99.603602
20
92.508369
11
99.579906
21
91.714164
0
LINE
8
Layer 1
10
99.579906
20
91.714164
11
99.744395
21
91.133055
0
LINE
8
Layer 1
10
99.744395
20
91.133055
11
100.082550
21
90.733412
0
LINE
8
Layer 1
10
100.082550
20
90.733412
11
100.579855
21
90.483606
0
LINE
8
Layer 1
10
100.579855
20
90.483606
11
101.221794
21
90.352005
0
LINE
8
Layer 1
10
101.221794
20
90.352005
11
102.881500
21
90.316900
0
LINE
8
Layer 1
10
102.881500
20
90.316900
11
108.112513
21
90.402587
0
LINE
8
Layer 1
10
108.112513
20
90.402587
11
116.643600
21
90.278200
0
LINE
8
Layer 1
10
116.643600
20
90.278200
11
121.710603
21
90.111402
0
LINE
8
Layer 1
10
121.710603
20
90.111402
11
125.624125
21
90.241387
0
LINE
8
Layer 1
10
125.624125
20
90.241387
11
129.427959
21
90.905205
0
LINE
8
Layer 1
10
129.427959
20
90.905205
11
134.165900
21
92.339900
0
LINE
8
Layer 1
10
134.165900
20
92.339900
11
137.600414
21
92.495686
0
LINE
8
Layer 1
10
137.600414
20
92.495686
11
140.974453
21
93.034082
0
LINE
8
Layer 1
10
140.974453
20
93.034082
11
144.257316
21
93.931937
0
LINE
8
Layer 1
10
144.257316
20
93.931937
11
147.418302
21
95.166097
0
LINE
8
Layer 1
10
147.418302
20
95.166097
11
150.426710
21
96.713409
0
LINE
8
Layer 1
10
150.426710
20
96.713409
11
153.251840
21
98.550719
0
LINE
8
Layer 1
10
153.251840
20
98.550719
11
155.862991
21
100.654876
0
LINE
8
Layer 1
10
155.862991
20
100.654876
11
158.229463
21
103.002725
0
LINE
8
Layer 1
10
158.229463
20
103.002725
11
160.320554
21
105.571114
0
LINE
8
Layer 1
10
160.320554
20
105.571114
11
162.105565
21
108.336890
0
LINE
8
Layer 1
10
162.105565
20
108.336890
11
163.553795
21
111.276900
0
LINE
8
Layer 1
10
163.553795
20
111.276900
11
164.634542
21
114.367991
0
LINE
8
Layer 1
10
164.634542
20
114.367991
11
165.317107
21
117.587009
0
LINE
8
Layer 1
10
165.317107
20
117.587009
11
165.570789
21
120.910802
0
LINE
8
Layer 1
10
165.570789
20
120.910802
11
165.364887
21
124.316217
0
LINE
8
Layer 1
10
165.364887
20
124.316217
11
164.668700
21
127.780100
0
LINE
8
Layer 1
10
164.668700
20
127.780100
11
163.682638
21
130.981032
0
LINE
8
Layer 1
10
163.682638
20
130.981032
11
162.608151
21
133.725962
0
LINE
8
Layer 1
10
162.608151
20
133.725962
11
161.448952
21
136.063467
0
LINE
8
Layer 1
10
161.448952
20
136.063467
11
160.208755
21
138.042125
0
LINE
8
Layer 1
10
160.208755
20
138.042125
11
158.891272
21
139.710513
0
LINE
8
Layer 1
10
158.891272
20
139.710513
11
157.500216
21
141.117207
0
LINE
8
Layer 1
10
157.500216
20
141.117207
11
156.039300
21
142.310785
0
LINE
8
Layer 1
10
156.039300
20
142.310785
11
154.512238
21
143.339825
0
LINE
8
Layer 1
10
154.512238
20
143.339825
11
151.274523
21
145.098596
0
LINE
8
Layer 1
10
151.274523
20
145.098596
11
147.816777
21
146.782137
0
LINE
8
Layer 1
10
147.816777
20
146.782137
11
144.168701
21
148.779066
0
LINE
8
Layer 1
10
144.168701
20
148.779066
11
142.282572
21
150.016494
0
LINE
8
Layer 1
10
142.282572
20
150.016494
11
140.360000
21
151.478000
0
LINE
8
Layer 1
10
140.360000
20
151.478000
11
137.682841
21
153.996783
0
LINE
8
Layer 1
10
137.682841
20
153.996783
11
136.272400
21
155.649737
0
LINE
8
Layer 1
10
136.272400
20
155.649737
11
134.907900
21
157.569362
0
LINE
8
Layer 1
10
134.907900
20
157.569362
11
133.659725
21
159.758880
0
LINE
8
Layer 1
10
133.659725
20
159.758880
11
132.598259
21
162.221511
0
LINE
8
Layer 1
10
132.598259
20
162.221511
11
131.793889
21
164.960477
0
LINE
8
Layer 1
10
131.793889
20
164.960477
11
131.317000
21
167.979000
0
LINE
8
Layer 1
10
131.317000
20
167.979000
11
131.317000
21
167.979000
0
LINE
8
Layer 1
10
101.474000
20
138.971000
11
106.011063
21
135.865978
0
LINE
8
Layer 1
10
106.011063
20
135.865978
11
110.903550
21
132.898000
0
LINE
8
Layer 1
10
110.903550
20
132.898000
11
115.969288
21
130.252672
0
LINE
8
Layer 1
10
115.969288
20
130.252672
11
121.026100
21
128.115600
0
LINE
8
Layer 1
10
121.026100
20
128.115600
11
127.716623
21
125.774123
0
LINE
8
Layer 1
10
127.716623
20
125.774123
11
130.909304
21
124.437182
0
LINE
8
Layer 1
10
130.909304
20
124.437182
11
133.826937
21
122.788837
0
LINE
8
Layer 1
10
133.826937
20
122.788837
11
135.141988
21
121.800873
0
LINE
8
Layer 1
10
135.141988
20
121.800873
11
136.339529
21
120.678638
0
LINE
8
Layer 1
10
136.339529
20
120.678638
11
137.403310
21
119.403327
0
LINE
8
Layer 1
10
137.403310
20
119.403327
11
138.317083
21
117.956133
0
LINE
8
Layer 1
10
138.317083
20
117.956133
11
139.064598
21
116.318249
0
LINE
8
Layer 1
10
139.064598
20
116.318249
11
139.629605
21
114.470871
0
LINE
8
Layer 1
10
139.629605
20
114.470871
11
139.995855
21
112.395189
0
LINE
8
Layer 1
10
139.995855
20
112.395189
11
140.147100
21
110.072400
0
LINE
8
Layer 1
10
140.147100
20
110.072400
11
139.810423
21
111.889585
0
LINE
8
Layer 1
10
139.810423
20
111.889585
11
139.316691
21
113.571253
0
LINE
8
Layer 1
10
139.316691
20
113.571253
11
138.678363
21
115.117668
0
LINE
8
Layer 1
10
138.678363
20
115.117668
11
137.907897
21
116.529095
0
LINE
8
Layer 1
10
137.907897
20
116.529095
11
137.017751
21
117.805798
0
LINE
8
Layer 1
10
137.017751
20
117.805798
11
136.020383
21
118.948040
0
LINE
8
Layer 1
10
136.020383
20
118.948040
11
134.928252
21
119.956088
0
LINE
8
Layer 1
10
134.928252
20
119.956088
11
133.753816
21
120.830203
0
LINE
8
Layer 1
10
133.753816
20
120.830203
11
131.207860
21
122.177697
0
LINE
8
Layer 1
10
131.207860
20
122.177697
11
128.482182
21
122.992635
0
LINE
8
Layer 1
10
128.482182
20
122.992635
11
125.676449
21
123.277131
0
LINE
8
Layer 1
10
125.676449
20
123.277131
11
122.890325
21
123.033300
0
LINE
8
Layer 1
10
122.890325
20
123.033300
11
120.223477
21
122.263255
0
LINE
8
Layer 1
10
120.223477
20
122.263255
11
117.775571
21
120.969109
0
LINE
8
Layer 1
10
117.775571
20
120.969109
11
116.664866
21
120.126159
0
LINE
8
Layer 1
10
116.664866
20
120.126159
11
115.646272
21
119.152977
0
LINE
8
Layer 1
10
115.646272
20
119.152977
11
114.732246
21
118.049826
0
LINE
8
Layer 1
10
114.732246
20
118.049826
11
113.935247
21
116.816972
0
LINE
8
Layer 1
10
113.935247
20
116.816972
11
113.267732
21
115.454678
0
LINE
8
Layer 1
10
113.267732
20
115.454678
11
112.742161
21
113.963208
0
LINE
8
Layer 1
10
112.742161
20
113.963208
11
112.370991
21
112.342827
0
LINE
8
Layer 1
10
112.370991
20
112.342827
11
112.166681
21
110.593799
0
LINE
8
Layer 1
10
112.166681
20
110.593799
11
112.141688
21
108.716388
0
LINE
8
Layer 1
10
112.141688
20
108.716388
11
112.308472
21
106.710858
0
LINE
8
Layer 1
10
112.308472
20
106.710858
11
112.679490
21
104.577474
0
LINE
8
Layer 1
10
112.679490
20
104.577474
11
113.267200
21
102.316500
 0 
ENDSEC
 0 
EOF