999
"DXF R12 Output" (www.mydxf.blogspot.com)
 0 
SECTION
 2 
HEADER
 9 
$ACADVER
 1 
AC1009
 9 
$EXTMIN
 10 
 0 
 20 
 0 
 9 
$EXTMAX
 10 
 8.5 
 20 
 11 
 0 
ENDSEC
 0 
SECTION
 2 
ENTITIES
0
LINE
8
Layer 1
10
139.408000
20
112.557000
11
139.408116
21
125.011900
0
LINE
8
Layer 1
10
139.408116
20
125.011900
11
139.480644
21
131.636290
0
LINE
8
Layer 1
10
139.480644
20
131.636290
11
139.655021
21
134.387920
0
LINE
8
Layer 1
10
139.655021
20
134.387920
11
142.535571
21
133.905594
0
LINE
8
Layer 1
10
142.535571
20
133.905594
11
145.593654
21
133.554290
0
LINE
8
Layer 1
10
145.593654
20
133.554290
11
149.226583
21
133.437083
0
LINE
8
Layer 1
10
149.226583
20
133.437083
11
152.898157
21
133.553991
0
LINE
8
Layer 1
10
152.898157
20
133.553991
11
156.072171
21
133.905030
0
LINE
8
Layer 1
10
156.072171
20
133.905030
11
160.255881
21
134.858640
0
LINE
8
Layer 1
10
160.255881
20
134.858640
11
164.311811
21
136.267750
0
LINE
8
Layer 1
10
164.311811
20
136.267750
11
168.216045
21
138.122553
0
LINE
8
Layer 1
10
168.216045
20
138.122553
11
171.944671
21
140.413240
0
LINE
8
Layer 1
10
171.944671
20
140.413240
11
174.423585
21
142.358744
0
LINE
8
Layer 1
10
174.423585
20
142.358744
11
177.260764
21
144.883332
0
LINE
8
Layer 1
10
177.260764
20
144.883332
11
179.594062
21
147.182654
0
LINE
8
Layer 1
10
179.594062
20
147.182654
11
180.561331
21
148.452360
0
LINE
8
Layer 1
10
180.561331
20
148.452360
11
179.689604
21
149.181343
0
LINE
8
Layer 1
10
179.689604
20
149.181343
11
177.597321
21
150.377910
0
LINE
8
Layer 1
10
177.597321
20
150.377910
11
172.693746
21
153.200679
0
LINE
8
Layer 1
10
172.693746
20
153.200679
11
168.393771
21
156.224810
0
LINE
8
Layer 1
10
168.393771
20
156.224810
11
165.077871
21
159.152940
0
LINE
8
Layer 1
10
165.077871
20
159.152940
11
163.907847
21
160.488080
0
LINE
8
Layer 1
10
163.907847
20
160.488080
11
163.126521
21
161.687710
0
LINE
8
Layer 1
10
163.126521
20
161.687710
11
162.452468
21
163.161150
0
LINE
8
Layer 1
10
162.452468
20
163.161150
11
163.686988
21
163.701512
0
LINE
8
Layer 1
10
163.686988
20
163.701512
11
165.014912
21
164.217838
0
LINE
8
Layer 1
10
165.014912
20
164.217838
11
166.280367
21
164.898871
0
LINE
8
Layer 1
10
166.280367
20
164.898871
11
167.453781
21
165.715480
0
LINE
8
Layer 1
10
167.453781
20
165.715480
11
168.505586
21
166.638533
0
LINE
8
Layer 1
10
168.505586
20
166.638533
11
169.406212
21
167.638900
0
LINE
8
Layer 1
10
169.406212
20
167.638900
11
170.126087
21
168.687451
0
LINE
8
Layer 1
10
170.126087
20
168.687451
11
170.635642
21
169.755055
0
LINE
8
Layer 1
10
170.635642
20
169.755055
11
170.905308
21
170.812582
0
LINE
8
Layer 1
10
170.905308
20
170.812582
11
170.974232
21
171.555665
0
LINE
8
Layer 1
10
170.974232
20
171.555665
11
170.844101
21
172.023245
0
LINE
8
Layer 1
10
170.844101
20
172.023245
11
170.388376
21
172.397058
0
LINE
8
Layer 1
10
170.388376
20
172.397058
11
169.480518
21
172.858842
0
LINE
8
Layer 1
10
169.480518
20
172.858842
11
167.348171
21
174.057495
0
LINE
8
Layer 1
10
167.348171
20
174.057495
11
164.615044
21
175.822055
0
LINE
8
Layer 1
10
164.615044
20
175.822055
11
161.801353
21
177.801398
0
LINE
8
Layer 1
10
161.801353
20
177.801398
11
159.427318
21
179.644402
0
LINE
8
Layer 1
10
159.427318
20
179.644402
11
157.457841
21
181.509860
0
LINE
8
Layer 1
10
157.457841
20
181.509860
11
155.688660
21
183.580642
0
LINE
8
Layer 1
10
155.688660
20
183.580642
11
154.317689
21
185.599021
0
LINE
8
Layer 1
10
154.317689
20
185.599021
11
153.542838
21
187.307272
0
LINE
8
Layer 1
10
153.542838
20
187.307272
11
153.327669
21
188.266290
0
LINE
8
Layer 1
10
153.327669
20
188.266290
11
153.403055
21
188.867545
0
LINE
8
Layer 1
10
153.403055
20
188.867545
11
153.850753
21
189.267529
0
LINE
8
Layer 1
10
153.850753
20
189.267529
11
154.752518
21
189.622732
0
LINE
8
Layer 1
10
154.752518
20
189.622732
11
156.025436
21
190.175056
0
LINE
8
Layer 1
10
156.025436
20
190.175056
11
157.301556
21
190.954354
0
LINE
8
Layer 1
10
157.301556
20
190.954354
11
158.453932
21
191.871923
0
LINE
8
Layer 1
10
158.453932
20
191.871923
11
159.355618
21
192.839062
0
LINE
8
Layer 1
10
159.355618
20
192.839062
11
160.018690
21
193.966935
0
LINE
8
Layer 1
10
160.018690
20
193.966935
11
160.571759
21
195.341679
0
LINE
8
Layer 1
10
160.571759
20
195.341679
11
160.903467
21
196.628332
0
LINE
8
Layer 1
10
160.903467
20
196.628332
11
160.902458
21
197.491932
0
LINE
8
Layer 1
10
160.902458
20
197.491932
11
159.342029
21
198.665727
0
LINE
8
Layer 1
10
159.342029
20
198.665727
11
155.794418
21
200.948592
0
LINE
8
Layer 1
10
155.794418
20
200.948592
11
152.039874
21
203.485361
0
LINE
8
Layer 1
10
152.039874
20
203.485361
11
148.673254
21
206.120989
0
LINE
8
Layer 1
10
148.673254
20
206.120989
11
146.257741
21
208.378854
0
LINE
8
Layer 1
10
146.257741
20
208.378854
11
145.582644
21
209.217180
0
LINE
8
Layer 1
10
145.582644
20
209.217180
11
145.356518
21
209.782332
0
LINE
8
Layer 1
10
145.356518
20
209.782332
11
145.875633
21
210.523398
0
LINE
8
Layer 1
10
145.875633
20
210.523398
11
147.086698
21
211.611672
0
LINE
8
Layer 1
10
147.086698
20
211.611672
11
148.237131
21
212.669933
0
LINE
8
Layer 1
10
148.237131
20
212.669933
11
149.254216
21
213.878015
0
LINE
8
Layer 1
10
149.254216
20
213.878015
11
149.982505
21
215.026073
0
LINE
8
Layer 1
10
149.982505
20
215.026073
11
150.266548
21
215.904262
0
LINE
8
Layer 1
10
150.266548
20
215.904262
11
149.037401
21
217.214382
0
LINE
8
Layer 1
10
149.037401
20
217.214382
11
146.074598
21
219.875052
0
LINE
8
Layer 1
10
146.074598
20
219.875052
11
142.520286
21
223.071240
0
LINE
8
Layer 1
10
142.520286
20
223.071240
11
139.112406
21
226.340795
0
LINE
8
Layer 1
10
139.112406
20
226.340795
11
136.268098
21
229.268229
0
LINE
8
Layer 1
10
136.268098
20
229.268229
11
134.404498
21
231.438052
0
LINE
8
Layer 1
10
134.404498
20
231.438052
11
136.021518
21
230.175592
0
LINE
8
Layer 1
10
136.021518
20
230.175592
11
139.686288
21
227.507462
0
LINE
8
Layer 1
10
139.686288
20
227.507462
11
139.780302
21
227.556862
0
LINE
8
Layer 1
10
139.780302
20
227.556862
11
137.120712
21
236.033572
0
LINE
8
Layer 1
10
137.120712
20
236.033572
11
136.344489
21
238.531412
0
LINE
8
Layer 1
10
136.344489
20
238.531412
11
143.734279
21
243.955982
0
LINE
8
Layer 1
10
143.734279
20
243.955982
11
144.989179
21
245.010712
0
LINE
8
Layer 1
10
144.989179
20
245.010712
11
139.629979
21
245.031511
0
LINE
8
Layer 1
10
139.629979
20
245.031511
11
134.245709
21
245.088670
0
LINE
8
Layer 1
10
134.245709
20
245.088670
11
133.987498
21
245.823201
0
LINE
8
Layer 1
10
133.987498
20
245.823201
11
133.256300
21
248.130141
0
LINE
8
Layer 1
10
133.256300
20
248.130141
11
130.733190
21
256.064631
0
LINE
8
Layer 1
10
130.733190
20
256.064631
11
130.599352
21
256.216097
0
LINE
8
Layer 1
10
130.599352
20
256.216097
11
130.547364
21
256.237963
0
LINE
8
Layer 1
10
130.547364
20
256.237963
11
130.315819
21
255.594752
0
LINE
8
Layer 1
10
130.315819
20
255.594752
11
127.913562
21
248.060237
0
LINE
8
Layer 1
10
127.913562
20
248.060237
11
127.093481
21
245.485317
0
LINE
8
Layer 1
10
127.093481
20
245.485317
11
126.947504
21
245.030920
0
LINE
8
Layer 1
10
126.947504
20
245.030920
11
121.572864
21
245.030920
0
LINE
8
Layer 1
10
121.572864
20
245.030920
11
116.200114
21
244.949361
0
LINE
8
Layer 1
10
116.200114
20
244.949361
11
117.120558
21
244.188239
0
LINE
8
Layer 1
10
117.120558
20
244.188239
11
119.507168
21
242.413939
0
LINE
8
Layer 1
10
119.507168
20
242.413939
11
122.915118
21
239.872799
0
LINE
8
Layer 1
10
122.915118
20
239.872799
11
124.855018
21
238.426399
0
LINE
8
Layer 1
10
124.855018
20
238.426399
11
123.974965
21
235.658379
0
LINE
8
Layer 1
10
123.974965
20
235.658379
11
122.952755
21
232.447599
0
LINE
8
Layer 1
10
122.952755
20
232.447599
11
121.670035
21
228.411829
0
LINE
8
Layer 1
10
121.670035
20
228.411829
11
121.417968
21
227.561291
0
LINE
8
Layer 1
10
121.417968
20
227.561291
11
121.417968
21
227.561276
0
LINE
8
Layer 1
10
121.417968
20
227.561276
11
121.564856
21
227.530438
0
LINE
8
Layer 1
10
121.564856
20
227.530438
11
121.964810
21
227.775451
0
LINE
8
Layer 1
10
121.964810
20
227.775451
11
126.838690
21
231.355661
0
LINE
8
Layer 1
10
126.838690
20
231.355661
11
124.104400
21
227.692879
0
LINE
8
Layer 1
10
124.104400
20
227.692879
11
121.335100
21
224.211461
0
LINE
8
Layer 1
10
121.335100
20
224.211461
11
119.050762
21
221.620612
0
LINE
8
Layer 1
10
119.050762
20
221.620612
11
116.952882
21
219.517133
0
LINE
8
Layer 1
10
116.952882
20
219.517133
11
115.083148
21
217.939698
0
LINE
8
Layer 1
10
115.083148
20
217.939698
11
113.483250
21
216.926981
0
LINE
8
Layer 1
10
113.483250
20
216.926981
11
112.453154
21
216.259373
0
LINE
8
Layer 1
10
112.453154
20
216.259373
11
112.084130
21
215.635051
0
LINE
8
Layer 1
10
112.084130
20
215.635051
11
112.483790
21
214.756131
0
LINE
8
Layer 1
10
112.483790
20
214.756131
11
113.507282
21
213.513727
0
LINE
8
Layer 1
10
113.507282
20
213.513727
11
114.891370
21
212.188566
0
LINE
8
Layer 1
10
114.891370
20
212.188566
11
116.372820
21
211.061371
0
LINE
8
Layer 1
10
116.372820
20
211.061371
11
117.927370
21
210.054061
0
LINE
8
Layer 1
10
117.927370
20
210.054061
11
115.088050
21
207.320621
0
LINE
8
Layer 1
10
115.088050
20
207.320621
11
110.939718
21
203.511627
0
LINE
8
Layer 1
10
110.939718
20
203.511627
11
107.117988
21
200.341634
0
LINE
8
Layer 1
10
107.117988
20
200.341634
11
103.988289
21
198.095360
0
LINE
8
Layer 1
10
103.988289
20
198.095360
11
102.797147
21
197.407591
0
LINE
8
Layer 1
10
102.797147
20
197.407591
11
101.916050
21
197.057521
0
LINE
8
Layer 1
10
101.916050
20
197.057521
11
100.943495
21
196.693784
0
LINE
8
Layer 1
10
100.943495
20
196.693784
11
100.380484
21
196.169989
0
LINE
8
Layer 1
10
100.380484
20
196.169989
11
100.222729
21
195.494737
0
LINE
8
Layer 1
10
100.222729
20
195.494737
11
100.465938
21
194.676625
0
LINE
8
Layer 1
10
100.465938
20
194.676625
11
101.105824
21
193.724255
0
LINE
8
Layer 1
10
101.105824
20
193.724255
11
102.138098
21
192.646224
0
LINE
8
Layer 1
10
102.138098
20
192.646224
11
103.558469
21
191.451134
0
LINE
8
Layer 1
10
103.558469
20
191.451134
11
105.362650
21
190.147581
0
LINE
8
Layer 1
10
105.362650
20
190.147581
11
108.133710
21
188.068441
0
LINE
8
Layer 1
10
108.133710
20
188.068441
11
107.208692
21
186.650021
0
LINE
8
Layer 1
10
107.208692
20
186.650021
11
105.012557
21
183.726123
0
LINE
8
Layer 1
10
105.012557
20
183.726123
11
100.280450
21
177.871841
0
LINE
8
Layer 1
10
100.280450
20
177.871841
11
97.383515
21
174.925361
0
LINE
8
Layer 1
10
97.383515
20
174.925361
11
94.593983
21
172.629304
0
LINE
8
Layer 1
10
94.593983
20
172.629304
11
92.126485
21
171.138286
0
LINE
8
Layer 1
10
92.126485
20
171.138286
11
91.080570
21
170.742984
0
LINE
8
Layer 1
10
91.080570
20
170.742984
11
90.195650
21
170.606921
0
LINE
8
Layer 1
10
90.195650
20
170.606921
11
89.601900
21
170.479629
0
LINE
8
Layer 1
10
89.601900
20
170.479629
11
89.369050
21
170.155041
0
LINE
8
Layer 1
10
89.369050
20
170.155041
11
89.614979
21
169.646300
0
LINE
8
Layer 1
10
89.614979
20
169.646300
11
90.289992
21
168.879772
0
LINE
8
Layer 1
10
90.289992
20
168.879772
11
92.550598
21
166.877451
0
LINE
8
Layer 1
10
92.550598
20
166.877451
11
95.397538
21
164.756270
0
LINE
8
Layer 1
10
95.397538
20
164.756270
11
98.077480
21
163.124421
0
LINE
8
Layer 1
10
98.077480
20
163.124421
11
100.037210
21
162.134702
0
LINE
8
Layer 1
10
100.037210
20
162.134702
11
95.937640
21
158.037722
0
LINE
8
Layer 1
10
95.937640
20
158.037722
11
91.854142
21
154.170344
0
LINE
8
Layer 1
10
91.854142
20
154.170344
11
88.379728
21
151.376530
0
LINE
8
Layer 1
10
88.379728
20
151.376530
11
85.317295
21
149.515937
0
LINE
8
Layer 1
10
85.317295
20
149.515937
11
83.878976
21
148.891742
0
LINE
8
Layer 1
10
83.878976
20
148.891742
11
82.469740
21
148.448222
0
LINE
8
Layer 1
10
82.469740
20
148.448222
11
81.171435
21
148.026277
0
LINE
8
Layer 1
10
81.171435
20
148.026277
11
80.566450
21
147.655819
0
LINE
8
Layer 1
10
80.566450
20
147.655819
11
80.722522
21
147.284706
0
LINE
8
Layer 1
10
80.722522
20
147.284706
11
81.274667
21
146.627820
0
LINE
8
Layer 1
10
81.274667
20
146.627820
11
83.251415
21
144.737484
0
LINE
8
Layer 1
10
83.251415
20
144.737484
11
85.865170
21
142.546313
0
LINE
8
Layer 1
10
85.865170
20
142.546313
11
88.484410
21
140.615809
0
LINE
8
Layer 1
10
88.484410
20
140.615809
11
92.481572
21
138.180245
0
LINE
8
Layer 1
10
92.481572
20
138.180245
11
96.516596
21
136.201137
0
LINE
8
Layer 1
10
96.516596
20
136.201137
11
100.624851
21
134.663212
0
LINE
8
Layer 1
10
100.624851
20
134.663212
11
104.841710
21
133.551199
0
LINE
8
Layer 1
10
104.841710
20
133.551199
11
108.763255
21
133.077525
0
LINE
8
Layer 1
10
108.763255
20
133.077525
11
113.397770
21
133.005897
0
LINE
8
Layer 1
10
113.397770
20
133.005897
11
117.759179
21
133.310751
0
LINE
8
Layer 1
10
117.759179
20
133.310751
11
119.529321
21
133.596369
0
LINE
8
Layer 1
10
119.529321
20
133.596369
11
120.861410
21
133.966520
0
LINE
8
Layer 1
10
120.861410
20
133.966520
11
121.011496
21
133.964728
0
LINE
8
Layer 1
10
121.011496
20
133.964728
11
121.127540
21
133.784752
0
LINE
8
Layer 1
10
121.127540
20
133.784752
11
121.271009
21
132.617325
0
LINE
8
Layer 1
10
121.271009
20
132.617325
11
121.298007
21
125.142080
0
LINE
8
Layer 1
10
121.298007
20
125.142080
11
121.265317
21
115.557360
0
LINE
8
Layer 1
10
121.265317
20
115.557360
11
121.265317
21
115.557315
0
LINE
8
Layer 1
10
121.265317
20
115.557315
11
121.265317
21
112.557005
0
LINE
8
Layer 1
10
121.265317
20
112.557005
11
139.408000
21
112.557000
0
LINE
8
Layer 1
10
110.749000
20
203.198000
11
113.509486
21
203.187409
0
LINE
8
Layer 1
10
113.509486
20
203.187409
11
115.923557
21
203.506161
0
LINE
8
Layer 1
10
115.923557
20
203.506161
11
118.275301
21
204.124428
0
LINE
8
Layer 1
10
118.275301
20
204.124428
11
120.848800
21
205.012380
0
LINE
8
Layer 1
10
125.453000
20
206.741000
11
130.012104
21
208.769224
0
LINE
8
Layer 1
10
130.012104
20
208.769224
11
132.024365
21
209.921565
0
LINE
8
Layer 1
10
132.024365
20
209.921565
11
133.866740
21
211.203640
0
LINE
8
Layer 1
10
137.535000
20
214.361000
11
139.658006
21
216.574539
0
LINE
8
Layer 1
10
139.658006
20
216.574539
11
141.415570
21
218.891079
0
LINE
8
Layer 1
10
141.415570
20
218.891079
11
142.679237
21
220.935771
0
LINE
8
Layer 1
10
142.679237
20
220.935771
11
143.320550
21
222.333770
0
LINE
8
Layer 1
10
160.173000
20
179.056000
11
153.173264
21
179.694654
0
LINE
8
Layer 1
10
153.173264
20
179.694654
11
149.715555
21
180.255222
0
LINE
8
Layer 1
10
149.715555
20
180.255222
11
148.021931
21
180.692666
0
LINE
8
Layer 1
10
148.021931
20
180.692666
11
146.361200
21
181.271780
0
LINE
8
Layer 1
10
141.733000
20
182.787000
11
139.663034
21
183.397692
0
LINE
8
Layer 1
10
139.663034
20
183.397692
11
137.494461
21
184.178888
0
LINE
8
Layer 1
10
137.494461
20
184.178888
11
135.213840
21
185.199000
0
LINE
8
Layer 1
10
135.213840
20
185.199000
11
132.807730
21
186.526440
0
LINE
8
Layer 1
10
128.328000
20
188.749000
11
126.046283
21
189.729844
0
LINE
8
Layer 1
10
126.046283
20
189.729844
11
123.859868
21
190.948936
0
LINE
8
Layer 1
10
123.859868
20
190.948936
11
121.773213
21
192.417435
0
LINE
8
Layer 1
10
121.773213
20
192.417435
11
119.790780
21
194.146500
0
LINE
8
Layer 1
10
115.910000
20
196.969000
11
114.197400
21
198.450537
0
LINE
8
Layer 1
10
114.197400
20
198.450537
11
112.825751
21
200.000265
0
LINE
8
Layer 1
10
112.825751
20
200.000265
11
111.699984
21
201.599171
0
LINE
8
Layer 1
10
111.699984
20
201.599171
11
110.725030
21
203.228240
0
LINE
8
Layer 1
10
97.560400
20
159.649000
11
103.456201
21
159.744159
0
LINE
8
Layer 1
10
103.456201
20
159.744159
11
106.772025
21
159.972844
0
LINE
8
Layer 1
10
106.772025
20
159.972844
11
110.521500
21
160.424072
0
LINE
8
Layer 1
10
115.376000
20
161.293000
11
119.901404
21
161.743343
0
LINE
8
Layer 1
10
119.901404
20
161.743343
11
124.426800
21
162.592650
0
LINE
8
Layer 1
10
129.193000
20
163.828000
11
133.124338
21
165.000072
0
LINE
8
Layer 1
10
133.124338
20
165.000072
11
136.799490
21
166.509240
0
LINE
8
Layer 1
10
141.366000
20
168.268000
11
143.228033
21
168.916071
0
LINE
8
Layer 1
10
143.228033
20
168.916071
11
144.975458
21
169.697457
0
LINE
8
Layer 1
10
144.975458
20
169.697457
11
148.186350
21
171.525480
0
LINE
8
Layer 1
10
152.379000
20
173.991000
11
154.713589
21
175.130023
0
LINE
8
Layer 1
10
154.713589
20
175.130023
11
156.725545
21
176.380825
0
LINE
8
Layer 1
10
156.725545
20
176.380825
11
158.490706
21
177.709229
0
LINE
8
Layer 1
10
158.490706
20
177.709229
11
160.084910
21
179.081060
0
LINE
8
Layer 1
10
179.979000
20
148.973000
11
174.509425
21
147.443641
0
LINE
8
Layer 1
10
174.509425
20
147.443641
11
171.287514
21
146.800742
0
LINE
8
Layer 1
10
171.287514
20
146.800742
11
167.481500
21
146.303870
0
LINE
8
Layer 1
10
162.635000
20
145.606000
11
157.690200
21
144.849318
0
LINE
8
Layer 1
10
157.690200
20
144.849318
11
155.030135
21
144.653669
0
LINE
8
Layer 1
10
155.030135
20
144.653669
11
152.158000
21
144.680001
0
LINE
8
Layer 1
10
147.301000
20
144.707000
11
142.251900
21
144.889721
0
LINE
8
Layer 1
10
142.251900
20
144.889721
11
137.405090
21
145.468195
0
LINE
8
Layer 1
10
132.513000
20
145.911000
11
130.152891
21
146.171476
0
LINE
8
Layer 1
10
130.152891
20
146.171476
11
127.759889
21
146.593296
0
LINE
8
Layer 1
10
127.759889
20
146.593296
11
125.317527
21
147.212558
0
LINE
8
Layer 1
10
125.317527
20
147.212558
11
122.809340
21
148.065360
0
LINE
8
Layer 1
10
118.059000
20
149.388000
11
115.748806
21
149.891599
0
LINE
8
Layer 1
10
115.748806
20
149.891599
11
113.399365
21
150.581949
0
LINE
8
Layer 1
10
113.399365
20
150.581949
11
111.000064
21
151.471743
0
LINE
8
Layer 1
10
111.000064
20
151.471743
11
108.540290
21
152.573670
0
LINE
8
Layer 1
10
104.146000
20
154.685000
11
102.258961
21
155.848531
0
LINE
8
Layer 1
10
102.258961
20
155.848531
11
100.560537
21
157.084250
0
LINE
8
Layer 1
10
100.560537
20
157.084250
11
97.565700
21
159.680000
0
LINE
8
Layer 1
10
126.771000
20
231.292000
11
130.575140
21
234.235520
0
LINE
8
Layer 1
10
130.575140
20
234.235520
11
134.460350
21
231.385540
 0 
ENDSEC
 0 
EOF