999
"DXF R12 Output" (www.mydxf.blogspot.com)
 0 
SECTION
 2 
HEADER
 9 
$ACADVER
 1 
AC1009
 9 
$EXTMIN
 10 
 0 
 20 
 0 
 9 
$EXTMAX
 10 
 8.5 
 20 
 11 
 0 
ENDSEC
 0 
SECTION
 2 
ENTITIES
0
LINE
8
Layer 1
10
77.796900
20
184.587000
11
77.181400
21
183.163817
0
LINE
8
Layer 1
10
77.181400
20
183.163817
11
76.830950
21
181.662512
0
LINE
8
Layer 1
10
76.830950
20
181.662512
11
76.690575
21
180.095227
0
LINE
8
Layer 1
10
76.690575
20
180.095227
11
76.705300
21
178.474100
0
LINE
8
Layer 1
10
76.705300
20
178.474100
11
76.808211
21
177.861980
0
LINE
8
Layer 1
10
76.808211
20
177.861980
11
77.030492
21
177.421212
0
LINE
8
Layer 1
10
77.030492
20
177.421212
11
77.336743
21
177.152007
0
LINE
8
Layer 1
10
77.336743
20
177.152007
11
77.691562
21
177.054575
0
LINE
8
Layer 1
10
77.691562
20
177.054575
11
78.059549
21
177.129127
0
LINE
8
Layer 1
10
78.059549
20
177.129127
11
78.405302
21
177.375875
0
LINE
8
Layer 1
10
78.405302
20
177.375875
11
78.693419
21
177.795029
0
LINE
8
Layer 1
10
78.693419
20
177.795029
11
78.888500
21
178.386800
0
LINE
8
Layer 1
10
78.888500
20
178.386800
11
79.563682
21
181.032036
0
LINE
8
Layer 1
10
79.563682
20
181.032036
11
80.476404
21
183.505100
0
LINE
8
Layer 1
10
80.476404
20
183.505100
11
81.609264
21
185.804105
0
LINE
8
Layer 1
10
81.609264
20
185.804105
11
82.944861
21
187.927163
0
LINE
8
Layer 1
10
82.944861
20
187.927163
11
84.465795
21
189.872389
0
LINE
8
Layer 1
10
84.465795
20
189.872389
11
86.154664
21
191.637895
0
LINE
8
Layer 1
10
86.154664
20
191.637895
11
87.994067
21
193.221795
0
LINE
8
Layer 1
10
87.994067
20
193.221795
11
89.966603
21
194.622202
0
LINE
8
Layer 1
10
89.966603
20
194.622202
11
92.054872
21
195.837228
0
LINE
8
Layer 1
10
92.054872
20
195.837228
11
94.241472
21
196.864988
0
LINE
8
Layer 1
10
94.241472
20
196.864988
11
96.509002
21
197.703595
0
LINE
8
Layer 1
10
96.509002
20
197.703595
11
98.840062
21
198.351161
0
LINE
8
Layer 1
10
98.840062
20
198.351161
11
101.217250
21
198.805800
0
LINE
8
Layer 1
10
101.217250
20
198.805800
11
103.623166
21
199.065625
0
LINE
8
Layer 1
10
103.623166
20
199.065625
11
106.040408
21
199.128750
0
LINE
8
Layer 1
10
106.040408
20
199.128750
11
108.451575
21
198.993288
0
LINE
8
Layer 1
10
108.451575
20
198.993288
11
110.839267
21
198.657351
0
LINE
8
Layer 1
10
110.839267
20
198.657351
11
113.186082
21
198.119053
0
LINE
8
Layer 1
10
113.186082
20
198.119053
11
115.474619
21
197.376508
0
LINE
8
Layer 1
10
115.474619
20
197.376508
11
117.687479
21
196.427828
0
LINE
8
Layer 1
10
117.687479
20
196.427828
11
119.807258
21
195.271127
0
LINE
8
Layer 1
10
119.807258
20
195.271127
11
121.816557
21
193.904519
0
LINE
8
Layer 1
10
121.816557
20
193.904519
11
123.697974
21
192.326115
0
LINE
8
Layer 1
10
123.697974
20
192.326115
11
125.434109
21
190.534030
0
LINE
8
Layer 1
10
125.434109
20
190.534030
11
127.007561
21
188.526376
0
LINE
8
Layer 1
10
127.007561
20
188.526376
11
128.400928
21
186.301268
0
LINE
8
Layer 1
10
128.400928
20
186.301268
11
129.596809
21
183.856817
0
LINE
8
Layer 1
10
129.596809
20
183.856817
11
130.577804
21
181.191138
0
LINE
8
Layer 1
10
130.577804
20
181.191138
11
131.326512
21
178.302344
0
LINE
8
Layer 1
10
131.326512
20
178.302344
11
131.825531
21
175.188547
0
LINE
8
Layer 1
10
131.825531
20
175.188547
11
132.057461
21
171.847861
0
LINE
8
Layer 1
10
132.057461
20
171.847861
11
132.004900
21
168.278400
0
LINE
8
Layer 1
10
132.004900
20
168.278400
11
132.146564
21
167.357534
0
LINE
8
Layer 1
10
132.146564
20
167.357534
11
132.505884
21
166.690034
0
LINE
8
Layer 1
10
132.505884
20
166.690034
11
133.019682
21
166.254261
0
LINE
8
Layer 1
10
133.019682
20
166.254261
11
133.624775
21
166.028575
0
LINE
8
Layer 1
10
133.624775
20
166.028575
11
134.257984
21
165.991336
0
LINE
8
Layer 1
10
134.257984
20
165.991336
11
134.856128
21
166.120903
0
LINE
8
Layer 1
10
134.856128
20
166.120903
11
135.356027
21
166.395638
0
LINE
8
Layer 1
10
135.356027
20
166.395638
11
135.694500
21
166.793900
0
LINE
8
Layer 1
10
135.694500
20
166.793900
11
136.159463
21
168.001798
0
LINE
8
Layer 1
10
136.159463
20
168.001798
11
136.327050
21
169.269538
0
LINE
8
Layer 1
10
136.327050
20
169.269538
11
136.178362
21
170.549333
0
LINE
8
Layer 1
10
136.178362
20
170.549333
11
135.694500
21
171.793400
0
LINE
8
Layer 1
10
135.694500
20
171.793400
11
135.088014
21
173.024470
0
LINE
8
Layer 1
10
135.088014
20
173.024470
11
134.649538
21
174.282663
0
LINE
8
Layer 1
10
134.649538
20
174.282663
11
134.477067
21
175.546048
0
LINE
8
Layer 1
10
134.477067
20
175.546048
11
134.668600
21
176.792700
0
LINE
8
Layer 1
10
134.668600
20
176.792700
11
135.483113
21
178.832488
0
LINE
8
Layer 1
10
135.483113
20
178.832488
11
136.459100
21
181.093600
0
LINE
8
Layer 1
10
136.459100
20
181.093600
11
137.143908
21
182.136336
0
LINE
8
Layer 1
10
137.143908
20
182.136336
11
138.175338
21
182.877338
0
LINE
8
Layer 1
10
138.175338
20
182.877338
11
139.440223
21
183.283145
0
LINE
8
Layer 1
10
139.440223
20
183.283145
11
140.825400
21
183.320300
0
LINE
8
Layer 1
10
140.825400
20
183.320300
11
142.189284
21
183.056819
0
LINE
8
Layer 1
10
142.189284
20
183.056819
11
143.459072
21
182.591409
0
LINE
8
Layer 1
10
143.459072
20
182.591409
11
144.633876
21
181.935633
0
LINE
8
Layer 1
10
144.633876
20
181.935633
11
145.712812
21
181.101053
0
LINE
8
Layer 1
10
145.712812
20
181.101053
11
146.694993
21
180.099231
0
LINE
8
Layer 1
10
146.694993
20
180.099231
11
147.579534
21
178.941729
0
LINE
8
Layer 1
10
147.579534
20
178.941729
11
148.365547
21
177.640110
0
LINE
8
Layer 1
10
148.365547
20
177.640110
11
149.052148
21
176.205936
0
LINE
8
Layer 1
10
149.052148
20
176.205936
11
150.123569
21
172.986172
0
LINE
8
Layer 1
10
150.123569
20
172.986172
11
150.786707
21
169.374935
0
LINE
8
Layer 1
10
150.786707
20
169.374935
11
151.034476
21
165.464724
0
LINE
8
Layer 1
10
151.034476
20
165.464724
11
150.859787
21
161.348038
0
LINE
8
Layer 1
10
150.859787
20
161.348038
11
150.255554
21
157.117373
0
LINE
8
Layer 1
10
150.255554
20
157.117373
11
149.214688
21
152.865229
0
LINE
8
Layer 1
10
149.214688
20
152.865229
11
147.730102
21
148.684103
0
LINE
8
Layer 1
10
147.730102
20
148.684103
11
145.794708
21
144.666495
0
LINE
8
Layer 1
10
145.794708
20
144.666495
11
143.401418
21
140.904903
0
LINE
8
Layer 1
10
143.401418
20
140.904903
11
142.030848
21
139.149018
0
LINE
8
Layer 1
10
142.030848
20
139.149018
11
140.543146
21
137.491824
0
LINE
8
Layer 1
10
140.543146
20
137.491824
11
138.937426
21
135.944883
0
LINE
8
Layer 1
10
138.937426
20
135.944883
11
137.212802
21
134.519757
0
LINE
8
Layer 1
10
137.212802
20
134.519757
11
135.368389
21
133.228008
0
LINE
8
Layer 1
10
135.368389
20
133.228008
11
133.403300
21
132.081200
0
LINE
8
Layer 1
10
133.403300
20
132.081200
11
134.675598
21
128.339286
0
LINE
8
Layer 1
10
134.675598
20
128.339286
11
136.114191
21
125.237788
0
LINE
8
Layer 1
10
136.114191
20
125.237788
11
137.691498
21
122.702879
0
LINE
8
Layer 1
10
137.691498
20
122.702879
11
139.379936
21
120.660731
0
LINE
8
Layer 1
10
139.379936
20
120.660731
11
141.151923
21
119.037517
0
LINE
8
Layer 1
10
141.151923
20
119.037517
11
142.979878
21
117.759409
0
LINE
8
Layer 1
10
142.979878
20
117.759409
11
144.836219
21
116.752579
0
LINE
8
Layer 1
10
144.836219
20
116.752579
11
146.693362
21
115.943200
0
LINE
8
Layer 1
10
146.693362
20
115.943200
11
150.299733
21
114.621485
0
LINE
8
Layer 1
10
150.299733
20
114.621485
11
151.993795
21
113.961494
0
LINE
8
Layer 1
10
151.993795
20
113.961494
11
153.578333
21
113.203644
0
LINE
8
Layer 1
10
153.578333
20
113.203644
11
155.025764
21
112.274107
0
LINE
8
Layer 1
10
155.025764
20
112.274107
11
156.308507
21
111.099055
0
LINE
8
Layer 1
10
156.308507
20
111.099055
11
157.398980
21
109.604662
0
LINE
8
Layer 1
10
157.398980
20
109.604662
11
158.269600
21
107.717100
0
LINE
8
Layer 1
10
158.269600
20
107.717100
11
158.582770
21
106.525286
0
LINE
8
Layer 1
10
158.582770
20
106.525286
11
158.681155
21
105.347637
0
LINE
8
Layer 1
10
158.681155
20
105.347637
11
158.582419
21
104.191074
0
LINE
8
Layer 1
10
158.582419
20
104.191074
11
158.304227
21
103.062523
0
LINE
8
Layer 1
10
158.304227
20
103.062523
11
157.864241
21
101.968908
0
LINE
8
Layer 1
10
157.864241
20
101.968908
11
157.280126
21
100.917152
0
LINE
8
Layer 1
10
157.280126
20
100.917152
11
155.750162
21
98.966913
0
LINE
8
Layer 1
10
155.750162
20
98.966913
11
153.855648
21
97.267197
0
LINE
8
Layer 1
10
153.855648
20
97.267197
11
151.737892
21
95.873395
0
LINE
8
Layer 1
10
151.737892
20
95.873395
11
149.538206
21
94.840899
0
LINE
8
Layer 1
10
149.538206
20
94.840899
11
147.397900
21
94.225100
0
LINE
8
Layer 1
10
147.397900
20
94.225100
11
144.652755
21
93.458569
0
LINE
8
Layer 1
10
144.652755
20
93.458569
11
143.548869
21
92.933157
0
LINE
8
Layer 1
10
143.548869
20
92.933157
11
142.608137
21
92.304700
0
LINE
8
Layer 1
10
142.608137
20
92.304700
11
141.818583
21
91.566987
0
LINE
8
Layer 1
10
141.818583
20
91.566987
11
141.168227
21
90.713806
0
LINE
8
Layer 1
10
141.168227
20
90.713806
11
140.645092
21
89.738948
0
LINE
8
Layer 1
10
140.645092
20
89.738948
11
140.237200
21
88.636200
0
LINE
8
Layer 1
10
140.237200
20
88.636200
11
139.392619
21
86.485026
0
LINE
8
Layer 1
10
139.392619
20
86.485026
11
138.255217
21
84.667047
0
LINE
8
Layer 1
10
138.255217
20
84.667047
11
136.822285
21
83.216938
0
LINE
8
Layer 1
10
136.822285
20
83.216938
11
135.091113
21
82.169375
0
LINE
8
Layer 1
10
135.091113
20
82.169375
11
133.058988
21
81.559034
0
LINE
8
Layer 1
10
133.058988
20
81.559034
11
130.723202
21
81.420591
0
LINE
8
Layer 1
10
130.723202
20
81.420591
11
128.081042
21
81.788721
0
LINE
8
Layer 1
10
128.081042
20
81.788721
11
125.129800
21
82.698100
0
LINE
8
Layer 1
10
125.129800
20
82.698100
11
123.213456
21
83.347057
0
LINE
8
Layer 1
10
123.213456
20
83.347057
11
121.535065
21
83.741203
0
LINE
8
Layer 1
10
121.535065
20
83.741203
11
120.071648
21
83.902252
0
LINE
8
Layer 1
10
120.071648
20
83.902252
11
118.800222
21
83.851920
0
LINE
8
Layer 1
10
118.800222
20
83.851920
11
117.697808
21
83.611921
0
LINE
8
Layer 1
10
117.697808
20
83.611921
11
116.741424
21
83.203969
0
LINE
8
Layer 1
10
116.741424
20
83.203969
11
115.908090
21
82.649778
0
LINE
8
Layer 1
10
115.908090
20
82.649778
11
115.174825
21
81.971063
0
LINE
8
Layer 1
10
115.174825
20
81.971063
11
113.916579
21
80.326917
0
LINE
8
Layer 1
10
113.916579
20
80.326917
11
112.782841
21
78.445248
0
LINE
8
Layer 1
10
112.782841
20
78.445248
11
111.589763
21
76.499771
0
LINE
8
Layer 1
10
111.589763
20
76.499771
11
110.153500
21
74.664200
0
LINE
8
Layer 1
10
110.153500
20
74.664200
11
108.110143
21
72.747310
0
LINE
8
Layer 1
10
108.110143
20
72.747310
11
105.933073
21
71.213464
0
LINE
8
Layer 1
10
105.933073
20
71.213464
11
103.624733
21
70.081827
0
LINE
8
Layer 1
10
103.624733
20
70.081827
11
101.187563
21
69.371563
0
LINE
8
Layer 1
10
101.187563
20
69.371563
11
98.624003
21
69.101834
0
LINE
8
Layer 1
10
98.624003
20
69.101834
11
95.936495
21
69.291805
0
LINE
8
Layer 1
10
95.936495
20
69.291805
11
93.127481
21
69.960639
0
LINE
8
Layer 1
10
93.127481
20
69.960639
11
90.199400
21
71.127500
0
LINE
8
Layer 1
10
90.199400
20
71.127500
11
89.276057
21
71.659051
0
LINE
8
Layer 1
10
89.276057
20
71.659051
11
88.465619
21
72.297162
0
LINE
8
Layer 1
10
88.465619
20
72.297162
11
87.095217
21
73.794778
0
LINE
8
Layer 1
10
87.095217
20
73.794778
11
84.738588
21
76.987600
0
LINE
8
Layer 1
10
84.738588
20
76.987600
11
83.399379
21
78.289670
0
LINE
8
Layer 1
10
83.399379
20
78.289670
11
82.612338
21
78.781121
0
LINE
8
Layer 1
10
82.612338
20
78.781121
11
81.717589
21
79.133422
0
LINE
8
Layer 1
10
81.717589
20
79.133422
11
80.693072
21
79.322001
0
LINE
8
Layer 1
10
80.693072
20
79.322001
11
79.516726
21
79.322288
0
LINE
8
Layer 1
10
79.516726
20
79.322288
11
78.166489
21
79.109711
0
LINE
8
Layer 1
10
78.166489
20
79.109711
11
76.620300
21
78.659700
0
LINE
8
Layer 1
10
76.620300
20
78.659700
11
74.606255
21
78.061701
0
LINE
8
Layer 1
10
74.606255
20
78.061701
11
72.609948
21
77.674828
0
LINE
8
Layer 1
10
72.609948
20
77.674828
11
70.646722
21
77.495211
0
LINE
8
Layer 1
10
70.646722
20
77.495211
11
68.731920
21
77.518983
0
LINE
8
Layer 1
10
68.731920
20
77.518983
11
66.880886
21
77.742277
0
LINE
8
Layer 1
10
66.880886
20
77.742277
11
65.108961
21
78.161225
0
LINE
8
Layer 1
10
65.108961
20
78.161225
11
63.431489
21
78.771959
0
LINE
8
Layer 1
10
63.431489
20
78.771959
11
61.863813
21
79.570613
0
LINE
8
Layer 1
10
61.863813
20
79.570613
11
60.421275
21
80.553317
0
LINE
8
Layer 1
10
60.421275
20
80.553317
11
59.119219
21
81.716205
0
LINE
8
Layer 1
10
59.119219
20
81.716205
11
57.972987
21
83.055409
0
LINE
8
Layer 1
10
57.972987
20
83.055409
11
56.997923
21
84.567061
0
LINE
8
Layer 1
10
56.997923
20
84.567061
11
56.209370
21
86.247294
0
LINE
8
Layer 1
10
56.209370
20
86.247294
11
55.622669
21
88.092240
0
LINE
8
Layer 1
10
55.622669
20
88.092240
11
55.253165
21
90.098031
0
LINE
8
Layer 1
10
55.253165
20
90.098031
11
55.116200
21
92.260800
0
LINE
8
Layer 1
10
55.116200
20
92.260800
11
55.266052
21
94.238232
0
LINE
8
Layer 1
10
55.266052
20
94.238232
11
55.719521
21
96.104555
0
LINE
8
Layer 1
10
55.719521
20
96.104555
11
56.439896
21
97.881424
0
LINE
8
Layer 1
10
56.439896
20
97.881424
11
57.390464
21
99.590497
0
LINE
8
Layer 1
10
57.390464
20
99.590497
11
58.534514
21
101.253429
0
LINE
8
Layer 1
10
58.534514
20
101.253429
11
59.835334
21
102.891878
0
LINE
8
Layer 1
10
59.835334
20
102.891878
11
62.760438
21
106.181950
0
LINE
8
Layer 1
10
62.760438
20
106.181950
11
65.872080
21
109.633966
0
LINE
8
Layer 1
10
65.872080
20
109.633966
11
68.876567
21
113.421178
0
LINE
8
Layer 1
10
68.876567
20
113.421178
11
70.246848
21
115.494624
0
LINE
8
Layer 1
10
70.246848
20
115.494624
11
71.480205
21
117.716839
0
LINE
8
Layer 1
10
71.480205
20
117.716839
11
72.539926
21
120.109478
0
LINE
8
Layer 1
10
72.539926
20
120.109478
11
73.389300
21
122.694200
0
LINE
8
Layer 1
10
73.389300
20
122.694200
11
74.562808
21
127.648931
0
LINE
8
Layer 1
10
74.562808
20
127.648931
11
75.388213
21
132.907825
0
LINE
8
Layer 1
10
75.388213
20
132.907825
11
75.770911
21
138.561481
0
LINE
8
Layer 1
10
75.770911
20
138.561481
11
75.616300
21
144.700500
0
LINE
8
Layer 1
10
75.616300
20
144.700500
11
73.834020
21
145.295981
0
LINE
8
Layer 1
10
73.834020
20
145.295981
11
72.166353
21
146.030951
0
LINE
8
Layer 1
10
72.166353
20
146.030951
11
70.611655
21
146.897742
0
LINE
8
Layer 1
10
70.611655
20
146.897742
11
69.168282
21
147.888688
0
LINE
8
Layer 1
10
69.168282
20
147.888688
11
67.834589
21
148.996120
0
LINE
8
Layer 1
10
67.834589
20
148.996120
11
66.608933
21
150.212371
0
LINE
8
Layer 1
10
66.608933
20
150.212371
11
64.475153
21
152.940664
0
LINE
8
Layer 1
10
64.475153
20
152.940664
11
62.753790
21
156.012228
0
LINE
8
Layer 1
10
62.753790
20
156.012228
11
61.431692
21
159.365724
0
LINE
8
Layer 1
10
61.431692
20
159.365724
11
60.495704
21
162.939815
0
LINE
8
Layer 1
10
60.495704
20
162.939815
11
59.932675
21
166.673163
0
LINE
8
Layer 1
10
59.932675
20
166.673163
11
59.729451
21
170.504428
0
LINE
8
Layer 1
10
59.729451
20
170.504428
11
59.872880
21
174.372274
0
LINE
8
Layer 1
10
59.872880
20
174.372274
11
60.349809
21
178.215363
0
LINE
8
Layer 1
10
60.349809
20
178.215363
11
61.147084
21
181.972355
0
LINE
8
Layer 1
10
61.147084
20
181.972355
11
62.251554
21
185.581913
0
LINE
8
Layer 1
10
62.251554
20
185.581913
11
63.650065
21
188.982698
0
LINE
8
Layer 1
10
63.650065
20
188.982698
11
65.329465
21
192.113373
0
LINE
8
Layer 1
10
65.329465
20
192.113373
11
67.276600
21
194.912600
0
LINE
8
Layer 1
10
67.276600
20
194.912600
11
68.123230
21
195.673923
0
LINE
8
Layer 1
10
68.123230
20
195.673923
11
69.204863
21
196.158938
0
LINE
8
Layer 1
10
69.204863
20
196.158938
11
70.463064
21
196.348283
0
LINE
8
Layer 1
10
70.463064
20
196.348283
11
71.839400
21
196.222600
0
LINE
8
Layer 1
10
71.839400
20
196.222600
11
72.946263
21
195.879025
0
LINE
8
Layer 1
10
72.946263
20
195.879025
11
74.109900
21
195.655000
0
LINE
8
Layer 1
10
74.109900
20
195.655000
11
75.023313
21
195.550517
0
LINE
8
Layer 1
10
75.023313
20
195.550517
11
75.733400
21
195.222863
0
LINE
8
Layer 1
10
75.733400
20
195.222863
11
76.221188
21
194.669177
0
LINE
8
Layer 1
10
76.221188
20
194.669177
11
76.467700
21
193.886600
0
LINE
8
Layer 1
10
76.467700
20
193.886600
11
76.666988
21
193.093288
0
LINE
8
Layer 1
10
76.666988
20
193.093288
11
77.100800
21
192.620300
0
LINE
8
Layer 1
10
77.100800
20
192.620300
11
77.670692
21
192.199853
0
LINE
8
Layer 1
10
77.670692
20
192.199853
11
78.020863
21
191.683800
0
LINE
8
Layer 1
10
78.020863
20
191.683800
11
78.134802
21
191.057422
0
LINE
8
Layer 1
10
78.134802
20
191.057422
11
77.996000
21
190.306000
0
LINE
8
Layer 1
10
77.996000
20
190.306000
11
77.989888
21
189.873125
0
LINE
8
Layer 1
10
77.989888
20
189.873125
11
78.301700
21
189.498300
0
LINE
8
Layer 1
10
78.301700
20
189.498300
11
78.749819
21
188.934857
0
LINE
8
Layer 1
10
78.749819
20
188.934857
11
79.008975
21
188.346539
0
LINE
8
Layer 1
10
79.008975
20
188.346539
11
79.100619
21
187.738573
0
LINE
8
Layer 1
10
79.100619
20
187.738573
11
79.046200
21
187.116187
0
LINE
8
Layer 1
10
79.046200
20
187.116187
11
78.584975
21
185.849067
0
LINE
8
Layer 1
10
78.584975
20
185.849067
11
77.796900
21
184.587000
0
LINE
8
Layer 1
10
77.796900
20
184.587000
11
77.796900
21
184.587000
0
LINE
8
Layer 1
10
100.477300
20
183.469500
11
99.398861
21
182.048873
0
LINE
8
Layer 1
10
99.398861
20
182.048873
11
98.478812
21
180.588187
0
LINE
8
Layer 1
10
98.478812
20
180.588187
11
96.975400
21
177.581400
0
LINE
8
Layer 1
10
96.975400
20
177.581400
11
96.572034
21
176.010371
0
LINE
8
Layer 1
10
96.572034
20
176.010371
11
96.738687
21
174.633795
0
LINE
8
Layer 1
10
96.738687
20
174.633795
11
97.361809
21
173.532875
0
LINE
8
Layer 1
10
97.361809
20
173.532875
11
98.327850
21
172.788812
0
LINE
8
Layer 1
10
98.327850
20
172.788812
11
99.523259
21
172.482811
0
LINE
8
Layer 1
10
99.523259
20
172.482811
11
100.834487
21
172.696073
0
LINE
8
Layer 1
10
100.834487
20
172.696073
11
102.147984
21
173.509802
0
LINE
8
Layer 1
10
102.147984
20
173.509802
11
102.770099
21
174.167217
0
LINE
8
Layer 1
10
102.770099
20
174.167217
11
103.350200
21
175.005200
0
LINE
8
Layer 1
10
103.350200
20
175.005200
11
104.142253
21
176.542444
0
LINE
8
Layer 1
10
104.142253
20
176.542444
11
104.864575
21
178.418875
0
LINE
8
Layer 1
10
104.864575
20
178.418875
11
105.359309
21
180.435069
0
LINE
8
Layer 1
10
105.359309
20
180.435069
11
105.468600
21
182.391600
0
LINE
8
Layer 1
10
105.468600
20
182.391600
11
105.259060
21
183.633681
0
LINE
8
Layer 1
10
105.259060
20
183.633681
11
104.862212
21
184.515877
0
LINE
8
Layer 1
10
104.862212
20
184.515877
11
104.312515
21
185.059937
0
LINE
8
Layer 1
10
104.312515
20
185.059937
11
103.644425
21
185.287612
0
LINE
8
Layer 1
10
103.644425
20
185.287612
11
102.892401
21
185.220656
0
LINE
8
Layer 1
10
102.892401
20
185.220656
11
102.090900
21
184.880817
0
LINE
8
Layer 1
10
102.090900
20
184.880817
11
101.274380
21
184.289848
0
LINE
8
Layer 1
10
101.274380
20
184.289848
11
100.477300
21
183.469500
0
LINE
8
Layer 1
10
100.477300
20
183.469500
11
100.477300
21
183.469500
0
LINE
8
Layer 1
10
118.609300
20
180.069300
11
118.933773
21
178.315436
0
LINE
8
Layer 1
10
118.933773
20
178.315436
11
119.098787
21
176.597037
0
LINE
8
Layer 1
10
119.098787
20
176.597037
11
119.089600
21
173.235400
0
LINE
8
Layer 1
10
119.089600
20
173.235400
11
118.743506
21
171.650746
0
LINE
8
Layer 1
10
118.743506
20
171.650746
11
117.975684
21
170.496097
0
LINE
8
Layer 1
10
117.975684
20
170.496097
11
116.924077
21
169.792925
0
LINE
8
Layer 1
10
116.924077
20
169.792925
11
115.726625
21
169.562700
0
LINE
8
Layer 1
10
115.726625
20
169.562700
11
114.521270
21
169.826894
0
LINE
8
Layer 1
10
114.521270
20
169.826894
11
113.445953
21
170.606978
0
LINE
8
Layer 1
10
113.445953
20
170.606978
11
112.638616
21
171.924423
0
LINE
8
Layer 1
10
112.638616
20
171.924423
11
112.378547
21
172.791366
0
LINE
8
Layer 1
10
112.378547
20
172.791366
11
112.237200
21
173.800700
0
LINE
8
Layer 1
10
112.237200
20
173.800700
11
112.220970
21
175.529937
0
LINE
8
Layer 1
10
112.220970
20
175.529937
11
112.419512
21
177.530750
0
LINE
8
Layer 1
10
112.419512
20
177.530750
11
112.884173
21
179.554062
0
LINE
8
Layer 1
10
112.884173
20
179.554062
11
113.666300
21
181.350800
0
LINE
8
Layer 1
10
113.666300
20
181.350800
11
114.411976
21
182.365989
0
LINE
8
Layer 1
10
114.411976
20
182.365989
11
115.163130
21
182.975512
0
LINE
8
Layer 1
10
115.163130
20
182.975512
11
115.898766
21
183.214292
0
LINE
8
Layer 1
10
115.898766
20
183.214292
11
116.597887
21
183.117250
0
LINE
8
Layer 1
10
116.597887
20
183.117250
11
117.239498
21
182.719308
0
LINE
8
Layer 1
10
117.239498
20
182.719308
11
117.802602
21
182.055387
0
LINE
8
Layer 1
10
117.802602
20
182.055387
11
118.266201
21
181.160411
0
LINE
8
Layer 1
10
118.266201
20
181.160411
11
118.609300
21
180.069300
0
LINE
8
Layer 1
10
118.609300
20
180.069300
11
118.609300
21
180.069300
0
LINE
8
Layer 1
10
92.036900
20
157.643500
11
91.785720
21
155.004225
0
LINE
8
Layer 1
10
91.785720
20
155.004225
11
91.704108
21
152.049050
0
LINE
8
Layer 1
10
91.704108
20
152.049050
11
91.834387
21
148.912150
0
LINE
8
Layer 1
10
91.834387
20
148.912150
11
92.218882
21
145.727700
0
LINE
8
Layer 1
10
92.218882
20
145.727700
11
92.899917
21
142.629875
0
LINE
8
Layer 1
10
92.899917
20
142.629875
11
93.919815
21
139.752850
0
LINE
8
Layer 1
10
93.919815
20
139.752850
11
95.320902
21
137.230800
0
LINE
8
Layer 1
10
95.320902
20
137.230800
11
96.177617
21
136.144820
0
LINE
8
Layer 1
10
96.177617
20
136.144820
11
97.145500
21
135.197900
0
LINE
8
Layer 1
10
97.145500
20
135.197900
11
98.307183
21
134.336506
0
LINE
8
Layer 1
10
98.307183
20
134.336506
11
99.500622
21
133.697900
0
LINE
8
Layer 1
10
99.500622
20
133.697900
11
100.718637
21
133.283656
0
LINE
8
Layer 1
10
100.718637
20
133.283656
11
101.954050
21
133.095350
0
LINE
8
Layer 1
10
101.954050
20
133.095350
11
103.199682
21
133.134556
0
LINE
8
Layer 1
10
103.199682
20
133.134556
11
104.448353
21
133.402850
0
LINE
8
Layer 1
10
104.448353
20
133.402850
11
105.692886
21
133.901806
0
LINE
8
Layer 1
10
105.692886
20
133.901806
11
106.926100
21
134.633000
0
LINE
8
Layer 1
10
106.926100
20
134.633000
11
108.353923
21
135.740056
0
LINE
8
Layer 1
10
108.353923
20
135.740056
11
109.680677
21
137.003277
0
LINE
8
Layer 1
10
109.680677
20
137.003277
11
110.905215
21
138.404250
0
LINE
8
Layer 1
10
110.905215
20
138.404250
11
112.026390
21
139.924560
0
LINE
8
Layer 1
10
112.026390
20
139.924560
11
113.954068
21
143.249538
0
LINE
8
Layer 1
10
113.954068
20
143.249538
11
115.454540
21
146.830900
0
LINE
8
Layer 1
10
115.454540
20
146.830900
11
116.168257
21
149.122741
0
LINE
8
Layer 1
10
116.168257
20
149.122741
11
116.710960
21
151.421325
0
LINE
8
Layer 1
10
116.710960
20
151.421325
11
117.080443
21
153.691206
0
LINE
8
Layer 1
10
117.080443
20
153.691206
11
117.274500
21
155.896940
0
LINE
8
Layer 1
10
117.274500
20
155.896940
11
117.248711
21
156.952468
0
LINE
8
Layer 1
10
117.248711
20
156.952468
11
117.066236
21
157.838231
0
LINE
8
Layer 1
10
117.066236
20
157.838231
11
116.736590
21
158.556936
0
LINE
8
Layer 1
10
116.736590
20
158.556936
11
116.269287
21
159.111290
0
LINE
8
Layer 1
10
116.269287
20
159.111290
11
115.673843
21
159.504001
0
LINE
8
Layer 1
10
115.673843
20
159.504001
11
114.959770
21
159.737774
0
LINE
8
Layer 1
10
114.959770
20
159.737774
11
114.136585
21
159.815319
0
LINE
8
Layer 1
10
114.136585
20
159.815319
11
113.213800
21
159.739340
0
LINE
8
Layer 1
10
113.213800
20
159.739340
11
112.241523
21
159.451549
0
LINE
8
Layer 1
10
112.241523
20
159.451549
11
111.364862
21
158.969715
0
LINE
8
Layer 1
10
111.364862
20
158.969715
11
109.764400
21
157.774540
0
LINE
8
Layer 1
10
109.764400
20
157.774540
11
108.822207
21
157.180909
0
LINE
8
Layer 1
10
108.822207
20
157.180909
11
107.831641
21
156.771479
0
LINE
8
Layer 1
10
107.831641
20
156.771479
11
106.805098
21
156.546945
0
LINE
8
Layer 1
10
106.805098
20
156.546945
11
105.754975
21
156.508002
0
LINE
8
Layer 1
10
105.754975
20
156.508002
11
104.693668
21
156.655346
0
LINE
8
Layer 1
10
104.693668
20
156.655346
11
103.633572
21
156.989670
0
LINE
8
Layer 1
10
103.633572
20
156.989670
11
102.587084
21
157.511669
0
LINE
8
Layer 1
10
102.587084
20
157.511669
11
101.566600
21
158.222040
0
LINE
8
Layer 1
10
101.566600
20
158.222040
11
99.522575
21
159.993740
0
LINE
8
Layer 1
10
99.522575
20
159.993740
11
98.475719
21
160.800146
0
LINE
8
Layer 1
10
98.475719
20
160.800146
11
97.276800
21
161.485840
0
LINE
8
Layer 1
10
97.276800
20
161.485840
11
96.053948
21
161.923433
0
LINE
8
Layer 1
10
96.053948
20
161.923433
11
95.025929
21
162.027496
0
LINE
8
Layer 1
10
95.025929
20
162.027496
11
94.176451
21
161.833669
0
LINE
8
Layer 1
10
94.176451
20
161.833669
11
93.489220
21
161.377590
0
LINE
8
Layer 1
10
93.489220
20
161.377590
11
92.947943
21
160.694899
0
LINE
8
Layer 1
10
92.947943
20
160.694899
11
92.536326
21
159.821234
0
LINE
8
Layer 1
10
92.536326
20
159.821234
11
92.036900
21
157.643540
0
LINE
8
Layer 1
10
92.036900
20
157.643540
11
92.036900
21
157.643500
 0 
ENDSEC
 0 
EOF