999
"DXF R12 Output" (www.mydxf.blogspot.com)
 0 
SECTION
 2 
HEADER
 9 
$ACADVER
 1 
AC1009
 9 
$EXTMIN
 10 
 0 
 20 
 0 
 9 
$EXTMAX
 10 
 8.5 
 20 
 11 
 0 
ENDSEC
 0 
SECTION
 2 
ENTITIES
0
LINE
8
Layer 1
10
124.551000
20
0.367520
11
122.991908
21
1.108468
0
LINE
8
Layer 1
10
122.991908
20
1.108468
11
121.681515
21
2.173815
0
LINE
8
Layer 1
10
121.681515
20
2.173815
11
120.518789
21
3.668128
0
LINE
8
Layer 1
10
120.518789
20
3.668128
11
119.402700
21
5.695970
0
LINE
8
Layer 1
10
119.402700
20
5.695970
11
118.439060
21
7.688740
0
LINE
8
Layer 1
10
118.439060
20
7.688740
11
109.755510
21
11.034910
0
LINE
8
Layer 1
10
109.755510
20
11.034910
11
99.000876
21
15.237340
0
LINE
8
Layer 1
10
99.000876
20
15.237340
11
93.205910
21
17.669050
0
LINE
8
Layer 1
10
93.205910
20
17.669050
11
91.748607
21
18.254602
0
LINE
8
Layer 1
10
91.748607
20
18.254602
11
91.480354
21
18.237897
0
LINE
8
Layer 1
10
91.480354
20
18.237897
11
91.364030
21
18.046648
0
LINE
8
Layer 1
10
91.364030
20
18.046648
11
90.733197
21
16.581089
0
LINE
8
Layer 1
10
90.733197
20
16.581089
11
89.829742
21
15.449953
0
LINE
8
Layer 1
10
89.829742
20
15.449953
11
88.724311
21
14.718732
0
LINE
8
Layer 1
10
88.724311
20
14.718732
11
87.487550
21
14.452918
0
LINE
8
Layer 1
10
87.487550
20
14.452918
11
87.024668
21
14.414115
0
LINE
8
Layer 1
10
87.024668
20
14.414115
11
86.688918
21
14.255183
0
LINE
8
Layer 1
10
86.688918
20
14.255183
11
86.008160
21
13.262598
0
LINE
8
Layer 1
10
86.008160
20
13.262598
11
85.147780
21
12.062338
0
LINE
8
Layer 1
10
85.147780
20
12.062338
11
84.153484
21
11.379492
0
LINE
8
Layer 1
10
84.153484
20
11.379492
11
82.981796
21
11.196683
0
LINE
8
Layer 1
10
82.981796
20
11.196683
11
81.589240
21
11.496538
0
LINE
8
Layer 1
10
81.589240
20
11.496538
11
80.586533
21
11.714202
0
LINE
8
Layer 1
10
80.586533
20
11.714202
11
79.551510
21
11.237897
0
LINE
8
Layer 1
10
79.551510
20
11.237897
11
78.413048
21
10.752093
0
LINE
8
Layer 1
10
78.413048
20
10.752093
11
77.092660
21
10.499142
0
LINE
8
Layer 1
10
77.092660
20
10.499142
11
75.869230
21
10.295627
0
LINE
8
Layer 1
10
75.869230
20
10.295627
11
75.703580
21
10.078929
0
LINE
8
Layer 1
10
75.703580
20
10.078929
11
75.675070
21
9.694672
0
LINE
8
Layer 1
10
75.675070
20
9.694672
11
75.574097
21
9.097096
0
LINE
8
Layer 1
10
75.574097
20
9.097096
11
75.278646
21
8.633776
0
LINE
8
Layer 1
10
75.278646
20
8.633776
11
74.799916
21
8.306544
0
LINE
8
Layer 1
10
74.799916
20
8.306544
11
74.149107
21
8.117228
0
LINE
8
Layer 1
10
74.149107
20
8.117228
11
72.376058
21
8.159663
0
LINE
8
Layer 1
10
72.376058
20
8.159663
11
70.049100
21
8.775720
0
LINE
8
Layer 1
10
70.049100
20
8.775720
11
68.085000
21
9.468364
0
LINE
8
Layer 1
10
68.085000
20
9.468364
11
66.952030
21
8.771247
0
LINE
8
Layer 1
10
66.952030
20
8.771247
11
65.812463
21
8.208845
0
LINE
8
Layer 1
10
65.812463
20
8.208845
11
64.663630
21
7.835623
0
LINE
8
Layer 1
10
64.663630
20
7.835623
11
62.898550
21
7.461174
0
LINE
8
Layer 1
10
62.898550
20
7.461174
11
61.655522
21
7.497448
0
LINE
8
Layer 1
10
61.655522
20
7.497448
11
60.336263
21
8.018835
0
LINE
8
Layer 1
10
60.336263
20
8.018835
11
59.178954
21
8.891284
0
LINE
8
Layer 1
10
59.178954
20
8.891284
11
58.421780
21
9.980744
0
LINE
8
Layer 1
10
58.421780
20
9.980744
11
58.101898
21
10.501937
0
LINE
8
Layer 1
10
58.101898
20
10.501937
11
57.742983
21
10.583662
0
LINE
8
Layer 1
10
57.742983
20
10.583662
11
54.660367
21
9.708018
0
LINE
8
Layer 1
10
54.660367
20
9.708018
11
53.817215
21
9.675229
0
LINE
8
Layer 1
10
53.817215
20
9.675229
11
53.113203
21
9.861570
0
LINE
8
Layer 1
10
53.113203
20
9.861570
11
52.232880
21
10.329910
0
LINE
8
Layer 1
10
52.232880
20
10.329910
11
51.443373
21
10.931080
0
LINE
8
Layer 1
10
51.443373
20
10.931080
11
50.681405
21
11.493063
0
LINE
8
Layer 1
10
50.681405
20
11.493063
11
49.700863
21
11.267779
0
LINE
8
Layer 1
10
49.700863
20
11.267779
11
48.625017
21
10.974032
0
LINE
8
Layer 1
10
48.625017
20
10.974032
11
47.672944
21
10.891819
0
LINE
8
Layer 1
10
47.672944
20
10.891819
11
46.850069
21
11.017367
0
LINE
8
Layer 1
10
46.850069
20
11.017367
11
46.161817
21
11.346909
0
LINE
8
Layer 1
10
46.161817
20
11.346909
11
45.613614
21
11.876672
0
LINE
8
Layer 1
10
45.613614
20
11.876672
11
45.210885
21
12.602886
0
LINE
8
Layer 1
10
45.210885
20
12.602886
11
44.959057
21
13.521782
0
LINE
8
Layer 1
10
44.959057
20
13.521782
11
44.863553
21
14.629589
0
LINE
8
Layer 1
10
44.863553
20
14.629589
11
44.794143
21
16.106139
0
LINE
8
Layer 1
10
44.794143
20
16.106139
11
43.494773
21
15.610451
0
LINE
8
Layer 1
10
43.494773
20
15.610451
11
37.881643
21
13.567451
0
LINE
8
Layer 1
10
37.881643
20
13.567451
11
34.519406
21
12.283123
0
LINE
8
Layer 1
10
34.519406
20
12.283123
11
33.119243
21
11.513791
0
LINE
8
Layer 1
10
33.119243
20
11.513791
11
32.533882
21
10.993285
0
LINE
8
Layer 1
10
32.533882
20
10.993285
11
31.561901
21
10.403664
0
LINE
8
Layer 1
10
31.561901
20
10.403664
11
28.661353
21
9.125961
0
LINE
8
Layer 1
10
28.661353
20
9.125961
11
27.345413
21
8.568793
0
LINE
8
Layer 1
10
27.345413
20
8.568793
11
26.297687
21
7.872554
0
LINE
8
Layer 1
10
26.297687
20
7.872554
11
25.154072
21
6.732062
0
LINE
8
Layer 1
10
25.154072
20
6.732062
11
23.550463
21
4.842131
0
LINE
8
Layer 1
10
23.550463
20
4.842131
11
21.968305
21
2.986557
0
LINE
8
Layer 1
10
21.968305
20
2.986557
11
20.844613
21
1.882387
0
LINE
8
Layer 1
10
20.844613
20
1.882387
11
19.886305
21
1.290926
0
LINE
8
Layer 1
10
19.886305
20
1.290926
11
18.800293
21
0.973481
0
LINE
8
Layer 1
10
18.800293
20
0.973481
11
17.181573
21
0.799193
0
LINE
8
Layer 1
10
17.181573
20
0.799193
11
15.268595
21
0.835804
0
LINE
8
Layer 1
10
15.268595
20
0.835804
11
13.352941
21
1.063209
0
LINE
8
Layer 1
10
13.352941
20
1.063209
11
11.726193
21
1.461300
0
LINE
8
Layer 1
10
11.726193
20
1.461300
11
9.606511
21
2.411904
0
LINE
8
Layer 1
10
9.606511
20
2.411904
11
7.403292
21
3.782888
0
LINE
8
Layer 1
10
7.403292
20
3.782888
11
5.326694
21
5.426235
0
LINE
8
Layer 1
10
5.326694
20
5.426235
11
3.586873
21
7.193930
0
LINE
8
Layer 1
10
3.586873
20
7.193930
11
3.033112
21
7.888531
0
LINE
8
Layer 1
10
3.033112
20
7.888531
11
2.728806
21
8.472595
0
LINE
8
Layer 1
10
2.728806
20
8.472595
11
2.494853
21
10.409580
0
LINE
8
Layer 1
10
2.494853
20
10.409580
11
2.468439
21
11.807230
0
LINE
8
Layer 1
10
2.468439
20
11.807230
11
2.627258
21
12.850997
0
LINE
8
Layer 1
10
2.627258
20
12.850997
11
3.044644
21
13.793707
0
LINE
8
Layer 1
10
3.044644
20
13.793707
11
3.793933
21
14.888180
0
LINE
8
Layer 1
10
3.793933
20
14.888180
11
4.385696
21
15.678282
0
LINE
8
Layer 1
10
4.385696
20
15.678282
11
3.999847
21
17.132532
0
LINE
8
Layer 1
10
3.999847
20
17.132532
11
3.430970
21
19.620208
0
LINE
8
Layer 1
10
3.430970
20
19.620208
11
3.327229
21
21.337017
0
LINE
8
Layer 1
10
3.327229
20
21.337017
11
3.720001
21
22.607224
0
LINE
8
Layer 1
10
3.720001
20
22.607224
11
4.640661
21
23.755092
0
LINE
8
Layer 1
10
4.640661
20
23.755092
11
5.535494
21
24.539123
0
LINE
8
Layer 1
10
5.535494
20
24.539123
11
6.622515
21
25.276264
0
LINE
8
Layer 1
10
6.622515
20
25.276264
11
9.643261
21
26.772822
0
LINE
8
Layer 1
10
9.643261
20
26.772822
11
11.229219
21
27.327709
0
LINE
8
Layer 1
10
11.229219
20
27.327709
11
12.568201
21
27.324498
0
LINE
8
Layer 1
10
12.568201
20
27.324498
11
13.949933
21
26.959929
0
LINE
8
Layer 1
10
13.949933
20
26.959929
11
15.656768
21
26.221729
0
LINE
8
Layer 1
10
15.656768
20
26.221729
11
17.464802
21
25.220688
0
LINE
8
Layer 1
10
17.464802
20
25.220688
11
19.150131
21
24.067598
0
LINE
8
Layer 1
10
19.150131
20
24.067598
11
20.864621
21
22.957358
0
LINE
8
Layer 1
10
20.864621
20
22.957358
11
24.070781
21
23.784223
0
LINE
8
Layer 1
10
24.070781
20
23.784223
11
26.695115
21
24.415283
0
LINE
8
Layer 1
10
26.695115
20
24.415283
11
28.629921
21
24.611089
0
LINE
8
Layer 1
10
28.629921
20
24.611089
11
30.478362
21
24.766533
0
LINE
8
Layer 1
10
30.478362
20
24.766533
11
32.570236
21
25.196366
0
LINE
8
Layer 1
10
32.570236
20
25.196366
11
34.773042
21
25.845838
0
LINE
8
Layer 1
10
34.773042
20
25.845838
11
36.954279
21
26.660201
0
LINE
8
Layer 1
10
36.954279
20
26.660201
11
38.981446
21
27.584707
0
LINE
8
Layer 1
10
38.981446
20
27.584707
11
40.722043
21
28.564606
0
LINE
8
Layer 1
10
40.722043
20
28.564606
11
42.043568
21
29.545150
0
LINE
8
Layer 1
10
42.043568
20
29.545150
11
42.813521
21
30.471589
0
LINE
8
Layer 1
10
42.813521
20
30.471589
11
44.363531
21
32.843639
0
LINE
8
Layer 1
10
44.363531
20
32.843639
11
45.338627
21
34.472469
0
LINE
8
Layer 1
10
45.338627
20
34.472469
11
42.664407
21
34.108771
0
LINE
8
Layer 1
10
42.664407
20
34.108771
11
40.258494
21
33.758428
0
LINE
8
Layer 1
10
40.258494
20
33.758428
11
38.111397
21
33.673803
0
LINE
8
Layer 1
10
38.111397
20
33.673803
11
36.591477
21
33.807331
0
LINE
8
Layer 1
10
36.591477
20
33.807331
11
35.283866
21
34.177680
0
LINE
8
Layer 1
10
35.283866
20
34.177680
11
33.935348
21
34.887860
0
LINE
8
Layer 1
10
33.935348
20
34.887860
11
32.292707
21
36.040883
0
LINE
8
Layer 1
10
32.292707
20
36.040883
11
30.843444
21
37.401020
0
LINE
8
Layer 1
10
30.843444
20
37.401020
11
29.365957
21
39.719693
0
LINE
8
Layer 1
10
29.365957
20
39.719693
11
27.384927
21
42.757963
0
LINE
8
Layer 1
10
27.384927
20
42.757963
11
22.880508
21
44.838707
0
LINE
8
Layer 1
10
22.880508
20
44.838707
11
16.682027
21
47.307613
0
LINE
8
Layer 1
10
16.682027
20
47.307613
11
15.775652
21
47.576337
0
LINE
8
Layer 1
10
15.775652
20
47.576337
11
15.013985
21
47.517655
0
LINE
8
Layer 1
10
15.013985
20
47.517655
11
13.966384
21
46.992631
0
LINE
8
Layer 1
10
13.966384
20
46.992631
11
12.202207
21
45.862333
0
LINE
8
Layer 1
10
12.202207
20
45.862333
11
10.508806
21
44.894669
0
LINE
8
Layer 1
10
10.508806
20
44.894669
11
9.190157
21
44.692103
0
LINE
8
Layer 1
10
9.190157
20
44.692103
11
7.384161
21
44.881795
0
LINE
8
Layer 1
10
7.384161
20
44.881795
11
5.495037
21
45.404479
0
LINE
8
Layer 1
10
5.495037
20
45.404479
11
3.717738
21
46.190565
0
LINE
8
Layer 1
10
3.717738
20
46.190565
11
2.247217
21
47.170463
0
LINE
8
Layer 1
10
2.247217
20
47.170463
11
1.669095
21
47.796416
0
LINE
8
Layer 1
10
1.669095
20
47.796416
11
1.158893
21
48.616815
0
LINE
8
Layer 1
10
1.158893
20
48.616815
11
0.397124
21
50.630353
0
LINE
8
Layer 1
10
0.397124
20
50.630353
11
0.071646
21
52.789886
0
LINE
8
Layer 1
10
0.071646
20
52.789886
11
0.106809
21
53.792778
0
LINE
8
Layer 1
10
0.106809
20
53.792778
11
0.292197
21
54.674223
0
LINE
8
Layer 1
10
0.292197
20
54.674223
11
1.030296
21
55.833128
0
LINE
8
Layer 1
10
1.030296
20
55.833128
11
2.307478
21
57.047777
0
LINE
8
Layer 1
10
2.307478
20
57.047777
11
3.734779
21
58.005707
0
LINE
8
Layer 1
10
3.734779
20
58.005707
11
4.923237
21
58.394453
0
LINE
8
Layer 1
10
4.923237
20
58.394453
11
5.113637
21
58.451648
0
LINE
8
Layer 1
10
5.113637
20
58.451648
11
5.207584
21
58.679863
0
LINE
8
Layer 1
10
5.207584
20
58.679863
11
5.155640
21
59.989123
0
LINE
8
Layer 1
10
5.155640
20
59.989123
11
5.120816
21
61.081064
0
LINE
8
Layer 1
10
5.120816
20
61.081064
11
5.247997
21
61.981277
0
LINE
8
Layer 1
10
5.247997
20
61.981277
11
5.557636
21
62.705935
0
LINE
8
Layer 1
10
5.557636
20
62.705935
11
6.070187
21
63.271214
0
LINE
8
Layer 1
10
6.070187
20
63.271214
11
6.806101
21
63.693289
0
LINE
8
Layer 1
10
6.806101
20
63.693289
11
7.785831
21
63.988333
0
LINE
8
Layer 1
10
7.785831
20
63.988333
11
10.558550
21
64.262033
0
LINE
8
Layer 1
10
10.558550
20
64.262033
11
13.363760
21
64.341548
0
LINE
8
Layer 1
10
13.363760
20
64.341548
11
14.419240
21
63.317038
0
LINE
8
Layer 1
10
14.419240
20
63.317038
11
16.518740
21
60.841498
0
LINE
8
Layer 1
10
16.518740
20
60.841498
11
17.955962
21
59.182249
0
LINE
8
Layer 1
10
17.955962
20
59.182249
11
18.558505
21
58.768442
0
LINE
8
Layer 1
10
18.558505
20
58.768442
11
19.085000
21
58.630698
0
LINE
8
Layer 1
10
19.085000
20
58.630698
11
19.447688
21
58.731063
0
LINE
8
Layer 1
10
19.447688
20
58.731063
11
18.354838
21
61.979463
0
LINE
8
Layer 1
10
18.354838
20
61.979463
11
16.260547
21
67.332213
0
LINE
8
Layer 1
10
16.260547
20
67.332213
11
15.244344
21
69.479911
0
LINE
8
Layer 1
10
15.244344
20
69.479911
11
14.350388
21
71.045103
0
LINE
8
Layer 1
10
14.350388
20
71.045103
11
13.617819
21
72.248017
0
LINE
8
Layer 1
10
13.617819
20
72.248017
11
13.151157
21
73.290879
0
LINE
8
Layer 1
10
13.151157
20
73.290879
11
12.904686
21
74.305596
0
LINE
8
Layer 1
10
12.904686
20
74.305596
11
12.832688
21
75.424073
0
LINE
8
Layer 1
10
12.832688
20
75.424073
11
12.973110
21
76.827042
0
LINE
8
Layer 1
10
12.973110
20
76.827042
11
13.679683
21
78.030383
0
LINE
8
Layer 1
10
13.679683
20
78.030383
11
14.683743
21
79.194433
0
LINE
8
Layer 1
10
14.683743
20
79.194433
11
16.068613
21
80.316613
0
LINE
8
Layer 1
10
16.068613
20
80.316613
11
17.296413
21
81.428563
0
LINE
8
Layer 1
10
17.296413
20
81.428563
11
16.800068
21
83.318543
0
LINE
8
Layer 1
10
16.800068
20
83.318543
11
16.533568
21
84.556166
0
LINE
8
Layer 1
10
16.533568
20
84.556166
11
16.369809
21
86.140586
0
LINE
8
Layer 1
10
16.369809
20
86.140586
11
16.202281
21
92.668243
0
LINE
8
Layer 1
10
16.202281
20
92.668243
11
16.181533
21
97.781151
0
LINE
8
Layer 1
10
16.181533
20
97.781151
11
16.344664
21
101.233164
0
LINE
8
Layer 1
10
16.344664
20
101.233164
11
16.775549
21
103.886317
0
LINE
8
Layer 1
10
16.775549
20
103.886317
11
17.558061
21
106.602643
0
LINE
8
Layer 1
10
17.558061
20
106.602643
11
18.514973
21
109.097935
0
LINE
8
Layer 1
10
18.514973
20
109.097935
11
19.846846
21
111.967097
0
LINE
8
Layer 1
10
19.846846
20
111.967097
11
21.386007
21
114.872857
0
LINE
8
Layer 1
10
21.386007
20
114.872857
11
22.964781
21
117.477943
0
LINE
8
Layer 1
10
22.964781
20
117.477943
11
24.368979
21
119.380292
0
LINE
8
Layer 1
10
24.368979
20
119.380292
11
26.065279
21
121.231027
0
LINE
8
Layer 1
10
26.065279
20
121.231027
11
28.155093
21
123.130600
0
LINE
8
Layer 1
10
28.155093
20
123.130600
11
30.739831
21
125.179463
0
LINE
8
Layer 1
10
30.739831
20
125.179463
11
34.677083
21
127.873057
0
LINE
8
Layer 1
10
34.677083
20
127.873057
11
38.867266
21
130.222230
0
LINE
8
Layer 1
10
38.867266
20
130.222230
11
43.295194
21
132.222299
0
LINE
8
Layer 1
10
43.295194
20
132.222299
11
47.945681
21
133.868581
0
LINE
8
Layer 1
10
47.945681
20
133.868581
11
52.803544
21
135.156392
0
LINE
8
Layer 1
10
52.803544
20
135.156392
11
57.853597
21
136.081048
0
LINE
8
Layer 1
10
57.853597
20
136.081048
11
63.080654
21
136.637866
0
LINE
8
Layer 1
10
63.080654
20
136.637866
11
68.469531
21
136.822163
0
LINE
8
Layer 1
10
68.469531
20
136.822163
11
71.895503
21
136.692749
0
LINE
8
Layer 1
10
71.895503
20
136.692749
11
75.341364
21
136.309080
0
LINE
8
Layer 1
10
75.341364
20
136.309080
11
78.806472
21
135.671344
0
LINE
8
Layer 1
10
78.806472
20
135.671344
11
82.290180
21
134.779730
0
LINE
8
Layer 1
10
82.290180
20
134.779730
11
85.791845
21
133.634426
0
LINE
8
Layer 1
10
85.791845
20
133.634426
11
89.310822
21
132.235620
0
LINE
8
Layer 1
10
89.310822
20
132.235620
11
92.846465
21
130.583499
0
LINE
8
Layer 1
10
92.846465
20
130.583499
11
96.398131
21
128.678253
0
LINE
8
Layer 1
10
96.398131
20
128.678253
11
98.833423
21
127.219369
0
LINE
8
Layer 1
10
98.833423
20
127.219369
11
100.757476
21
125.900159
0
LINE
8
Layer 1
10
100.757476
20
125.900159
11
102.292625
21
124.629020
0
LINE
8
Layer 1
10
102.292625
20
124.629020
11
103.561201
21
123.314343
0
LINE
8
Layer 1
10
103.561201
20
123.314343
11
106.754851
21
119.818713
0
LINE
8
Layer 1
10
106.754851
20
119.818713
11
108.050658
21
118.327618
0
LINE
8
Layer 1
10
108.050658
20
118.327618
11
109.276723
21
116.653646
0
LINE
8
Layer 1
10
109.276723
20
116.653646
11
111.477034
21
112.843382
0
LINE
8
Layer 1
10
111.477034
20
112.843382
11
113.270601
21
108.560533
0
LINE
8
Layer 1
10
113.270601
20
108.560533
11
114.572241
21
103.977713
0
LINE
8
Layer 1
10
114.572241
20
103.977713
11
114.931678
21
100.268782
0
LINE
8
Layer 1
10
114.931678
20
100.268782
11
115.055490
21
94.697413
0
LINE
8
Layer 1
10
115.055490
20
94.697413
11
114.941993
21
89.088394
0
LINE
8
Layer 1
10
114.941993
20
89.088394
11
114.589506
21
85.266513
0
LINE
8
Layer 1
10
114.589506
20
85.266513
11
114.032668
21
82.844973
0
LINE
8
Layer 1
10
114.032668
20
82.844973
11
114.029760
21
82.586624
0
LINE
8
Layer 1
10
114.029760
20
82.586624
11
114.255045
21
82.491633
0
LINE
8
Layer 1
10
114.255045
20
82.491633
11
114.840920
21
82.182570
0
LINE
8
Layer 1
10
114.840920
20
82.182570
11
115.694780
21
81.428759
0
LINE
8
Layer 1
10
115.694780
20
81.428759
11
116.553444
21
80.490271
0
LINE
8
Layer 1
10
116.553444
20
80.490271
11
117.153735
21
79.627173
0
LINE
8
Layer 1
10
117.153735
20
79.627173
11
117.486684
21
78.562490
0
LINE
8
Layer 1
10
117.486684
20
78.562490
11
117.667121
21
77.094802
0
LINE
8
Layer 1
10
117.667121
20
77.094802
11
117.679141
21
75.478897
0
LINE
8
Layer 1
10
117.679141
20
75.478897
11
117.506845
21
73.969563
0
LINE
8
Layer 1
10
117.506845
20
73.969563
11
116.564604
21
70.515129
0
LINE
8
Layer 1
10
116.564604
20
70.515129
11
114.970531
21
65.726572
0
LINE
8
Layer 1
10
114.970531
20
65.726572
11
113.186815
21
60.917185
0
LINE
8
Layer 1
10
113.186815
20
60.917185
11
111.675645
21
57.400263
0
LINE
8
Layer 1
10
111.675645
20
57.400263
11
110.978282
21
56.208918
0
LINE
8
Layer 1
10
110.978282
20
56.208918
11
110.192443
21
55.164688
0
LINE
8
Layer 1
10
110.192443
20
55.164688
11
109.451620
21
54.423676
0
LINE
8
Layer 1
10
109.451620
20
54.423676
11
108.889305
21
54.141983
0
LINE
8
Layer 1
10
108.889305
20
54.141983
11
108.289309
21
53.792316
0
LINE
8
Layer 1
10
108.289309
20
53.792316
11
108.087848
21
53.514072
0
LINE
8
Layer 1
10
108.087848
20
53.514072
11
108.087786
21
53.308080
0
LINE
8
Layer 1
10
108.087786
20
53.308080
11
113.283337
21
55.483335
0
LINE
8
Layer 1
10
113.283337
20
55.483335
11
119.844886
21
58.460770
0
LINE
8
Layer 1
10
119.844886
20
58.460770
11
120.505119
21
58.974088
0
LINE
8
Layer 1
10
120.505119
20
58.974088
11
121.210253
21
59.806066
0
LINE
8
Layer 1
10
121.210253
20
59.806066
11
121.857266
21
60.816344
0
LINE
8
Layer 1
10
121.857266
20
60.816344
11
122.343136
21
61.864560
0
LINE
8
Layer 1
10
122.343136
20
61.864560
11
122.815911
21
62.824674
0
LINE
8
Layer 1
10
122.815911
20
62.824674
11
123.372286
21
63.536820
0
LINE
8
Layer 1
10
123.372286
20
63.536820
11
124.326858
21
64.108983
0
LINE
8
Layer 1
10
124.326858
20
64.108983
11
125.687584
21
64.585707
0
LINE
8
Layer 1
10
125.687584
20
64.585707
11
127.285234
21
64.920564
0
LINE
8
Layer 1
10
127.285234
20
64.920564
11
128.950576
21
65.067130
0
LINE
8
Layer 1
10
128.950576
20
65.067130
11
130.723603
21
64.996060
0
LINE
8
Layer 1
10
130.723603
20
64.996060
11
131.948126
21
64.473761
0
LINE
8
Layer 1
10
131.948126
20
64.473761
11
133.540166
21
63.208373
0
LINE
8
Layer 1
10
133.540166
20
63.208373
11
134.065626
21
62.560078
0
LINE
8
Layer 1
10
134.065626
20
62.560078
11
134.265056
21
62.053531
0
LINE
8
Layer 1
10
134.265056
20
62.053531
11
134.019651
21
61.087210
0
LINE
8
Layer 1
10
134.019651
20
61.087210
11
133.914689
21
60.619941
0
LINE
8
Layer 1
10
133.914689
20
60.619941
11
134.020734
21
60.299521
0
LINE
8
Layer 1
10
134.020734
20
60.299521
11
134.347945
21
60.114090
0
LINE
8
Layer 1
10
134.347945
20
60.114090
11
134.906485
21
60.051790
0
LINE
8
Layer 1
10
134.906485
20
60.051790
11
136.623368
21
59.636510
0
LINE
8
Layer 1
10
136.623368
20
59.636510
11
138.339795
21
58.823300
0
LINE
8
Layer 1
10
138.339795
20
58.823300
11
138.844521
21
58.312030
0
LINE
8
Layer 1
10
138.844521
20
58.312030
11
139.146476
21
57.729080
0
LINE
8
Layer 1
10
139.146476
20
57.729080
11
139.740753
21
56.501320
0
LINE
8
Layer 1
10
139.740753
20
56.501320
11
140.170293
21
55.440582
0
LINE
8
Layer 1
10
140.170293
20
55.440582
11
140.459759
21
53.856950
0
LINE
8
Layer 1
10
140.459759
20
53.856950
11
140.558053
21
52.180068
0
LINE
8
Layer 1
10
140.558053
20
52.180068
11
140.414082
21
50.839580
0
LINE
8
Layer 1
10
140.414082
20
50.839580
11
140.013932
21
49.957565
0
LINE
8
Layer 1
10
140.013932
20
49.957565
11
139.318511
21
49.014666
0
LINE
8
Layer 1
10
139.318511
20
49.014666
11
137.330873
21
47.166995
0
LINE
8
Layer 1
10
137.330873
20
47.166995
11
135.029207
21
45.738124
0
LINE
8
Layer 1
10
135.029207
20
45.738124
11
133.941250
21
45.318725
0
LINE
8
Layer 1
10
133.941250
20
45.318725
11
132.991552
21
45.169610
0
LINE
8
Layer 1
10
132.991552
20
45.169610
11
131.221398
21
45.539936
0
LINE
8
Layer 1
10
131.221398
20
45.539936
11
128.314502
21
46.429810
0
LINE
8
Layer 1
10
128.314502
20
46.429810
11
124.608332
21
47.685000
0
LINE
8
Layer 1
10
124.608332
20
47.685000
11
120.045762
21
45.982920
0
LINE
8
Layer 1
10
120.045762
20
45.982920
11
113.225074
21
43.363848
0
LINE
8
Layer 1
10
113.225074
20
43.363848
11
108.996762
21
41.468213
0
LINE
8
Layer 1
10
108.996762
20
41.468213
11
107.559785
21
40.637381
0
LINE
8
Layer 1
10
107.559785
20
40.637381
11
106.416949
21
39.802246
0
LINE
8
Layer 1
10
106.416949
20
39.802246
11
104.541762
21
37.872180
0
LINE
8
Layer 1
10
104.541762
20
37.872180
11
103.679491
21
37.052492
0
LINE
8
Layer 1
10
103.679491
20
37.052492
11
102.705452
21
36.413660
0
LINE
8
Layer 1
10
102.705452
20
36.413660
11
102.047340
21
36.142248
0
LINE
8
Layer 1
10
102.047340
20
36.142248
11
101.313265
21
35.999236
0
LINE
8
Layer 1
10
101.313265
20
35.999236
11
98.504692
21
35.984849
0
LINE
8
Layer 1
10
98.504692
20
35.984849
11
95.617574
21
35.968360
0
LINE
8
Layer 1
10
95.617574
20
35.968360
11
94.945580
21
35.772104
0
LINE
8
Layer 1
10
94.945580
20
35.772104
11
94.264642
21
35.375271
0
LINE
8
Layer 1
10
94.264642
20
35.375271
11
93.171732
21
34.684457
0
LINE
8
Layer 1
10
93.171732
20
34.684457
11
93.656830
21
33.899561
0
LINE
8
Layer 1
10
93.656830
20
33.899561
11
94.045697
21
33.026075
0
LINE
8
Layer 1
10
94.045697
20
33.026075
11
94.299432
21
32.028191
0
LINE
8
Layer 1
10
94.299432
20
32.028191
11
94.412991
21
31.409015
0
LINE
8
Layer 1
10
94.412991
20
31.409015
11
94.600479
21
31.030630
0
LINE
8
Layer 1
10
94.600479
20
31.030630
11
95.638192
21
30.489391
0
LINE
8
Layer 1
10
95.638192
20
30.489391
11
101.960109
21
28.307401
0
LINE
8
Layer 1
10
101.960109
20
28.307401
11
109.109018
21
26.171191
0
LINE
8
Layer 1
10
109.109018
20
26.171191
11
115.415364
21
24.547321
0
LINE
8
Layer 1
10
115.415364
20
24.547321
11
117.730840
21
24.073314
0
LINE
8
Layer 1
10
117.730840
20
24.073314
11
119.209592
21
23.902351
0
LINE
8
Layer 1
10
119.209592
20
23.902351
11
120.381752
21
24.053566
0
LINE
8
Layer 1
10
120.381752
20
24.053566
11
121.826052
21
24.481891
0
LINE
8
Layer 1
10
121.826052
20
24.481891
11
123.436619
21
25.149352
0
LINE
8
Layer 1
10
123.436619
20
25.149352
11
125.107582
21
26.017971
0
LINE
8
Layer 1
10
125.107582
20
26.017971
11
126.839097
21
26.898873
0
LINE
8
Layer 1
10
126.839097
20
26.898873
11
128.103182
21
27.352231
0
LINE
8
Layer 1
10
128.103182
20
27.352231
11
128.953934
21
27.388404
0
LINE
8
Layer 1
10
128.953934
20
27.388404
11
129.926547
21
27.262405
0
LINE
8
Layer 1
10
129.926547
20
27.262405
11
132.049067
21
26.602235
0
LINE
8
Layer 1
10
132.049067
20
26.602235
11
134.094164
21
25.528403
0
LINE
8
Layer 1
10
134.094164
20
25.528403
11
135.685262
21
24.197591
0
LINE
8
Layer 1
10
135.685262
20
24.197591
11
136.605119
21
22.948910
0
LINE
8
Layer 1
10
136.605119
20
22.948910
11
137.217658
21
21.594402
0
LINE
8
Layer 1
10
137.217658
20
21.594402
11
137.559853
21
20.020664
0
LINE
8
Layer 1
10
137.559853
20
20.020664
11
137.668682
21
18.114291
0
LINE
8
Layer 1
10
137.668682
20
18.114291
11
137.755805
21
16.058870
0
LINE
8
Layer 1
10
137.755805
20
16.058870
11
137.914454
21
15.625787
0
LINE
8
Layer 1
10
137.914454
20
15.625787
11
138.198593
21
15.333161
0
LINE
8
Layer 1
10
138.198593
20
15.333161
11
138.840267
21
14.418188
0
LINE
8
Layer 1
10
138.840267
20
14.418188
11
139.511305
21
12.863910
0
LINE
8
Layer 1
10
139.511305
20
12.863910
11
140.064060
21
11.073818
0
LINE
8
Layer 1
10
140.064060
20
11.073818
11
140.350883
21
9.451401
0
LINE
8
Layer 1
10
140.350883
20
9.451401
11
140.347419
21
7.975649
0
LINE
8
Layer 1
10
140.347419
20
7.975649
11
139.956784
21
6.819291
0
LINE
8
Layer 1
10
139.956784
20
6.819291
11
139.177321
21
5.732851
0
LINE
8
Layer 1
10
139.177321
20
5.732851
11
137.996048
21
4.843062
0
LINE
8
Layer 1
10
137.996048
20
4.843062
11
136.433780
21
4.161843
0
LINE
8
Layer 1
10
136.433780
20
4.161843
11
134.511334
21
3.701111
0
LINE
8
Layer 1
10
134.511334
20
3.701111
11
133.269855
21
3.254468
0
LINE
8
Layer 1
10
133.269855
20
3.254468
11
131.649344
21
2.259481
0
LINE
8
Layer 1
10
131.649344
20
2.259481
11
128.804334
21
0.521871
0
LINE
8
Layer 1
10
128.804334
20
0.521871
11
127.814868
21
0.206276
0
LINE
8
Layer 1
10
127.814868
20
0.206276
11
126.704685
21
0.072761
0
LINE
8
Layer 1
10
126.704685
20
0.072761
11
125.580996
21
0.125217
0
LINE
8
Layer 1
10
125.580996
20
0.125217
11
124.551014
21
0.367536
0
LINE
8
Layer 1
10
124.551014
20
0.367536
11
124.551000
21
0.367520
0
LINE
8
Layer 1
10
67.527500
20
65.928000
11
67.564144
21
65.884326
0
LINE
8
Layer 1
10
67.564144
20
65.884326
11
68.010156
21
65.338383
0
LINE
8
Layer 1
10
68.010156
20
65.338383
11
68.764119
21
63.989993
0
LINE
8
Layer 1
10
68.764119
20
63.989993
11
70.513009
21
59.813433
0
LINE
8
Layer 1
10
70.513009
20
59.813433
11
71.507089
21
57.373142
0
LINE
8
Layer 1
10
71.507089
20
57.373142
11
72.475459
21
55.633913
0
LINE
8
Layer 1
10
72.475459
20
55.633913
11
75.149310
21
51.463653
0
LINE
8
Layer 1
10
75.149310
20
51.463653
11
76.885610
21
48.596623
0
LINE
8
Layer 1
10
76.885610
20
48.596623
11
76.634658
21
47.311153
0
LINE
8
Layer 1
10
76.634658
20
47.311153
11
75.182987
21
42.238513
0
LINE
8
Layer 1
10
75.182987
20
42.238513
11
74.143041
21
38.570371
0
LINE
8
Layer 1
10
74.143041
20
38.570371
11
73.809047
21
35.148663
0
LINE
8
Layer 1
10
73.809047
20
35.148663
11
73.737612
21
33.776953
0
LINE
8
Layer 1
10
73.737612
20
33.776953
11
73.470376
21
34.409878
0
LINE
8
Layer 1
10
73.470376
20
34.409878
11
73.344529
21
34.777417
0
LINE
8
Layer 1
10
73.344529
20
34.777417
11
73.313808
21
34.880683
0
LINE
8
Layer 1
10
73.313808
20
34.880683
11
73.295035
21
35.216572
0
LINE
8
Layer 1
10
73.295035
20
35.216572
11
73.129852
21
35.557284
0
LINE
8
Layer 1
10
73.129852
20
35.557284
11
72.670514
21
35.779731
0
LINE
8
Layer 1
10
72.670514
20
35.779731
11
72.286315
21
35.662400
0
LINE
8
Layer 1
10
72.286315
20
35.662400
11
71.782820
21
35.180557
0
LINE
8
Layer 1
10
71.782820
20
35.180557
11
71.285105
21
34.407660
0
LINE
8
Layer 1
10
71.285105
20
34.407660
11
70.777280
21
33.623353
0
LINE
8
Layer 1
10
70.777280
20
33.623353
11
70.711026
21
33.549698
0
LINE
8
Layer 1
10
70.711026
20
33.549698
11
70.691408
21
33.588931
0
LINE
8
Layer 1
10
70.691408
20
33.588931
11
70.578887
21
34.150789
0
LINE
8
Layer 1
10
70.578887
20
34.150789
11
70.383086
21
35.479929
0
LINE
8
Layer 1
10
70.383086
20
35.479929
11
69.897839
21
39.476229
0
LINE
8
Layer 1
10
69.897839
20
39.476229
11
69.132031
21
47.671669
0
LINE
8
Layer 1
10
69.132031
20
47.671669
11
69.035055
21
49.282479
0
LINE
8
Layer 1
10
69.035055
20
49.282479
11
68.939560
21
50.093065
0
LINE
8
Layer 1
10
68.939560
20
50.093065
11
68.869974
21
50.272949
0
LINE
8
Layer 1
10
68.869974
20
50.272949
11
68.739360
21
50.427662
0
LINE
8
Layer 1
10
68.739360
20
50.427662
11
68.459496
21
50.533891
0
LINE
8
Layer 1
10
68.459496
20
50.533891
11
68.176803
21
50.467534
0
LINE
8
Layer 1
10
68.176803
20
50.467534
11
68.036802
21
50.341793
0
LINE
8
Layer 1
10
68.036802
20
50.341793
11
67.943158
21
50.188188
0
LINE
8
Layer 1
10
67.943158
20
50.188188
11
67.741435
21
49.581913
0
LINE
8
Layer 1
10
67.741435
20
49.581913
11
67.386871
21
47.807679
0
LINE
8
Layer 1
10
67.386871
20
47.807679
11
67.056686
21
45.275073
0
LINE
8
Layer 1
10
67.056686
20
45.275073
11
66.708389
21
40.436353
0
LINE
8
Layer 1
10
66.708389
20
40.436353
11
66.921956
21
36.957493
0
LINE
8
Layer 1
10
66.921956
20
36.957493
11
66.980092
21
35.490888
0
LINE
8
Layer 1
10
66.980092
20
35.490888
11
66.877539
21
33.950553
0
LINE
8
Layer 1
10
66.877539
20
33.950553
11
66.747993
21
33.247675
0
LINE
8
Layer 1
10
66.747993
20
33.247675
11
65.949612
21
34.917705
0
LINE
8
Layer 1
10
65.949612
20
34.917705
11
64.790352
21
37.219915
0
LINE
8
Layer 1
10
64.790352
20
37.219915
11
64.502757
21
37.493072
0
LINE
8
Layer 1
10
64.502757
20
37.493072
11
64.175928
21
37.568208
0
LINE
8
Layer 1
10
64.175928
20
37.568208
11
63.822450
21
37.393877
0
LINE
8
Layer 1
10
63.822450
20
37.393877
11
63.648117
21
36.992285
0
LINE
8
Layer 1
10
63.648117
20
36.992285
11
63.624798
21
36.621414
0
LINE
8
Layer 1
10
63.624798
20
36.621414
11
63.251702
21
35.018004
0
LINE
8
Layer 1
10
63.251702
20
35.018004
11
62.381456
21
38.168543
0
LINE
8
Layer 1
10
62.381456
20
38.168543
11
60.837682
21
42.002744
0
LINE
8
Layer 1
10
60.837682
20
42.002744
11
60.173565
21
43.662415
0
LINE
8
Layer 1
10
60.173565
20
43.662415
11
60.191056
21
45.112214
0
LINE
8
Layer 1
10
60.191056
20
45.112214
11
60.530713
21
46.946229
0
LINE
8
Layer 1
10
60.530713
20
46.946229
11
61.224254
21
49.166238
0
LINE
8
Layer 1
10
61.224254
20
49.166238
11
62.265554
21
51.740102
0
LINE
8
Layer 1
10
62.265554
20
51.740102
11
63.648486
21
54.635684
0
LINE
8
Layer 1
10
63.648486
20
54.635684
11
65.309524
21
58.189214
0
LINE
8
Layer 1
10
65.309524
20
58.189214
11
66.119876
21
61.132964
0
LINE
8
Layer 1
10
66.119876
20
61.132964
11
66.522211
21
63.256034
0
LINE
8
Layer 1
10
66.522211
20
63.256034
11
66.696175
21
64.580734
0
LINE
8
Layer 1
10
66.696175
20
64.580734
11
66.696175
21
64.581113
0
LINE
8
Layer 1
10
66.696175
20
64.581113
11
67.158844
21
65.571213
0
LINE
8
Layer 1
10
67.158844
20
65.571213
11
67.527498
21
65.928019
0
LINE
8
Layer 1
10
67.527498
20
65.928019
11
67.527500
21
65.928000
0
LINE
8
Layer 1
10
39.455400
20
79.588100
11
40.672534
21
79.042535
0
LINE
8
Layer 1
10
40.672534
20
79.042535
11
42.522340
21
77.771130
0
LINE
8
Layer 1
10
42.522340
20
77.771130
11
45.484716
21
75.238595
0
LINE
8
Layer 1
10
45.484716
20
75.238595
11
49.318750
21
71.587360
0
LINE
8
Layer 1
10
49.318750
20
71.587360
11
52.951620
21
68.169940
0
LINE
8
Layer 1
10
52.951620
20
68.169940
11
54.074099
21
67.404954
0
LINE
8
Layer 1
10
54.074099
20
67.404954
11
55.273840
21
66.831550
0
LINE
8
Layer 1
10
55.273840
20
66.831550
11
57.841648
21
65.825131
0
LINE
8
Layer 1
10
57.841648
20
65.825131
11
59.862030
21
65.304020
0
LINE
8
Layer 1
10
59.862030
20
65.304020
11
61.583681
21
65.251239
0
LINE
8
Layer 1
10
61.583681
20
65.251239
11
63.196200
21
65.633436
0
LINE
8
Layer 1
10
63.196200
20
65.633436
11
63.645914
21
65.790001
0
LINE
8
Layer 1
10
63.645914
20
65.790001
11
63.644398
21
65.687845
0
LINE
8
Layer 1
10
63.644398
20
65.687845
11
63.492641
21
63.920845
0
LINE
8
Layer 1
10
63.492641
20
63.920845
11
62.920413
21
60.243595
0
LINE
8
Layer 1
10
62.920413
20
60.243595
11
62.249750
21
58.133468
0
LINE
8
Layer 1
10
62.249750
20
58.133468
11
61.281990
21
56.364825
0
LINE
8
Layer 1
10
61.281990
20
56.364825
11
59.727021
21
54.521685
0
LINE
8
Layer 1
10
59.727021
20
54.521685
11
57.294733
21
52.188065
0
LINE
8
Layer 1
10
57.294733
20
52.188065
11
55.564353
21
50.603535
0
LINE
8
Layer 1
10
55.564353
20
50.603535
11
54.320333
21
50.629075
0
LINE
8
Layer 1
10
54.320333
20
50.629075
11
52.948094
21
50.804288
0
LINE
8
Layer 1
10
52.948094
20
50.804288
11
51.381463
21
51.532563
0
LINE
8
Layer 1
10
51.381463
20
51.532563
11
49.442909
21
52.390084
0
LINE
8
Layer 1
10
49.442909
20
52.390084
11
47.285183
21
53.081193
0
LINE
8
Layer 1
10
47.285183
20
53.081193
11
45.870164
21
53.399037
0
LINE
8
Layer 1
10
45.870164
20
53.399037
11
44.408449
21
53.577962
0
LINE
8
Layer 1
10
44.408449
20
53.577962
11
39.085583
21
53.680805
0
LINE
8
Layer 1
10
39.085583
20
53.680805
11
35.236923
21
53.729662
0
LINE
8
Layer 1
10
35.236923
20
53.729662
11
35.666278
21
53.958405
0
LINE
8
Layer 1
10
35.666278
20
53.958405
11
33.902588
21
55.548855
0
LINE
8
Layer 1
10
33.902588
20
55.548855
11
30.728308
21
58.033545
0
LINE
8
Layer 1
10
30.728308
20
58.033545
11
29.086459
21
59.337787
0
LINE
8
Layer 1
10
29.086459
20
59.337787
11
28.647982
21
60.005127
0
LINE
8
Layer 1
10
28.647982
20
60.005127
11
28.144398
21
61.058625
0
LINE
8
Layer 1
10
28.144398
20
61.058625
11
26.418828
21
65.248505
0
LINE
8
Layer 1
10
26.418828
20
65.248505
11
24.949388
21
68.767705
0
LINE
8
Layer 1
10
24.949388
20
68.767705
11
23.659468
21
71.701735
0
LINE
8
Layer 1
10
23.659468
20
71.701735
11
22.951929
21
73.234847
0
LINE
8
Layer 1
10
22.951929
20
73.234847
11
22.196698
21
74.442925
0
LINE
8
Layer 1
10
22.196698
20
74.442925
11
23.085391
21
74.327445
0
LINE
8
Layer 1
10
23.085391
20
74.327445
11
25.473871
21
73.876625
0
LINE
8
Layer 1
10
25.473871
20
73.876625
11
26.723157
21
73.625928
0
LINE
8
Layer 1
10
26.723157
20
73.625928
11
27.824628
21
73.607487
0
LINE
8
Layer 1
10
27.824628
20
73.607487
11
28.835031
21
73.829195
0
LINE
8
Layer 1
10
28.835031
20
73.829195
11
29.811111
21
74.298945
0
LINE
8
Layer 1
10
29.811111
20
74.298945
11
31.087331
21
75.076960
0
LINE
8
Layer 1
10
31.087331
20
75.076960
11
29.500561
21
76.813240
0
LINE
8
Layer 1
10
29.500561
20
76.813240
11
29.071947
21
77.350670
0
LINE
8
Layer 1
10
29.071947
20
77.350670
11
30.194197
21
76.935382
0
LINE
8
Layer 1
10
30.194197
20
76.935382
11
31.902284
21
76.489355
0
LINE
8
Layer 1
10
31.902284
20
76.489355
11
33.640147
21
76.695167
0
LINE
8
Layer 1
10
33.640147
20
76.695167
11
37.260437
21
77.299590
0
LINE
8
Layer 1
10
37.260437
20
77.299590
11
38.604002
21
77.424051
0
LINE
8
Layer 1
10
38.604002
20
77.424051
11
39.563417
21
77.306999
0
LINE
8
Layer 1
10
39.563417
20
77.306999
11
40.594001
21
76.842911
0
LINE
8
Layer 1
10
40.594001
20
76.842911
11
42.099947
21
75.887549
0
LINE
8
Layer 1
10
42.099947
20
75.887549
11
43.162977
21
75.175418
0
LINE
8
Layer 1
10
43.162977
20
75.175418
11
43.771479
21
75.894212
0
LINE
8
Layer 1
10
43.771479
20
75.894212
11
42.963475
21
76.749954
0
LINE
8
Layer 1
10
42.963475
20
76.749954
11
40.355135
21
78.904854
0
LINE
8
Layer 1
10
40.355135
20
78.904854
11
39.455337
21
79.588116
0
LINE
8
Layer 1
10
39.455337
20
79.588116
11
39.455400
21
79.588100
0
LINE
8
Layer 1
10
99.182900
20
80.370200
11
98.348573
21
79.326712
0
LINE
8
Layer 1
10
98.348573
20
79.326712
11
97.234140
21
78.267120
0
LINE
8
Layer 1
10
97.234140
20
78.267120
11
95.322760
21
76.704430
0
LINE
8
Layer 1
10
95.322760
20
76.704430
11
97.814140
21
76.202163
0
LINE
8
Layer 1
10
97.814140
20
76.202163
11
100.561280
21
75.460791
0
LINE
8
Layer 1
10
100.561280
20
75.460791
11
102.029997
21
75.105015
0
LINE
8
Layer 1
10
102.029997
20
75.105015
11
103.610080
21
74.942607
0
LINE
8
Layer 1
10
103.610080
20
74.942607
11
105.074411
21
75.044070
0
LINE
8
Layer 1
10
105.074411
20
75.044070
11
106.461640
21
75.439385
0
LINE
8
Layer 1
10
106.461640
20
75.439385
11
107.851254
21
76.157053
0
LINE
8
Layer 1
10
107.851254
20
76.157053
11
109.322740
21
77.225577
0
LINE
8
Layer 1
10
109.322740
20
77.225577
11
110.136666
21
77.827040
0
LINE
8
Layer 1
10
110.136666
20
77.827040
11
109.997127
21
77.336986
0
LINE
8
Layer 1
10
109.997127
20
77.336986
11
109.584299
21
76.722662
0
LINE
8
Layer 1
10
109.584299
20
76.722662
11
109.220953
21
76.432386
0
LINE
8
Layer 1
10
109.220953
20
76.432386
11
108.748662
21
76.247321
0
LINE
8
Layer 1
10
108.748662
20
76.247321
11
108.383338
21
75.747275
0
LINE
8
Layer 1
10
108.383338
20
75.747275
11
108.274518
21
74.138685
0
LINE
8
Layer 1
10
108.274518
20
74.138685
11
108.082353
21
71.956616
0
LINE
8
Layer 1
10
108.082353
20
71.956616
11
107.528910
21
69.483295
0
LINE
8
Layer 1
10
107.528910
20
69.483295
11
106.642886
21
66.837069
0
LINE
8
Layer 1
10
106.642886
20
66.837069
11
105.452978
21
64.136285
0
LINE
8
Layer 1
10
105.452978
20
64.136285
11
104.319593
21
62.213475
0
LINE
8
Layer 1
10
104.319593
20
62.213475
11
102.462288
21
60.464215
0
LINE
8
Layer 1
10
102.462288
20
60.464215
11
99.730328
21
57.837025
0
LINE
8
Layer 1
10
99.730328
20
57.837025
11
98.792406
21
56.721825
0
LINE
8
Layer 1
10
98.792406
20
56.721825
11
98.502590
21
56.279518
0
LINE
8
Layer 1
10
98.502590
20
56.279518
11
98.353426
21
55.800198
0
LINE
8
Layer 1
10
98.353426
20
55.800198
11
98.538123
21
55.380840
0
LINE
8
Layer 1
10
98.538123
20
55.380840
11
98.765756
21
55.211692
0
LINE
8
Layer 1
10
98.765756
20
55.211692
11
98.870875
21
55.170976
0
LINE
8
Layer 1
10
98.870875
20
55.170976
11
95.448975
21
55.026255
0
LINE
8
Layer 1
10
95.448975
20
55.026255
11
92.133886
21
54.866378
0
LINE
8
Layer 1
10
92.133886
20
54.866378
11
89.498824
21
54.500146
0
LINE
8
Layer 1
10
89.498824
20
54.500146
11
86.984637
21
53.813364
0
LINE
8
Layer 1
10
86.984637
20
53.813364
11
84.032175
21
52.691835
0
LINE
8
Layer 1
10
84.032175
20
52.691835
11
81.575595
21
51.845345
0
LINE
8
Layer 1
10
81.575595
20
51.845345
11
80.968520
21
51.889003
0
LINE
8
Layer 1
10
80.968520
20
51.889003
11
80.194255
21
52.199191
0
LINE
8
Layer 1
10
80.194255
20
52.199191
11
78.161243
21
53.357769
0
LINE
8
Layer 1
10
78.161243
20
53.357769
11
76.097975
21
54.909291
0
LINE
8
Layer 1
10
76.097975
20
54.909291
11
74.405305
21
56.541090
0
LINE
8
Layer 1
10
74.405305
20
56.541090
11
73.480755
21
57.826291
0
LINE
8
Layer 1
10
73.480755
20
57.826291
11
72.224885
21
61.563871
0
LINE
8
Layer 1
10
72.224885
20
61.563871
11
71.539766
21
63.730621
0
LINE
8
Layer 1
10
71.539766
20
63.730621
11
71.051928
21
65.086041
0
LINE
8
Layer 1
10
71.051928
20
65.086041
11
70.644038
21
66.539171
0
LINE
8
Layer 1
10
70.644038
20
66.539171
11
70.639603
21
66.579515
0
LINE
8
Layer 1
10
70.639603
20
66.579515
11
72.156710
21
65.897630
0
LINE
8
Layer 1
10
72.156710
20
65.897630
11
73.449663
21
65.572015
0
LINE
8
Layer 1
10
73.449663
20
65.572015
11
74.887883
21
65.700157
0
LINE
8
Layer 1
10
74.887883
20
65.700157
11
76.447013
21
66.304875
0
LINE
8
Layer 1
10
76.447013
20
66.304875
11
79.047451
21
67.732445
0
LINE
8
Layer 1
10
79.047451
20
67.732445
11
81.384800
21
69.415567
0
LINE
8
Layer 1
10
81.384800
20
69.415567
11
83.433813
21
71.335053
0
LINE
8
Layer 1
10
83.433813
20
71.335053
11
85.169243
21
73.471715
0
LINE
8
Layer 1
10
85.169243
20
73.471715
11
86.693083
21
75.417125
0
LINE
8
Layer 1
10
86.693083
20
75.417125
11
86.661993
21
74.989624
0
LINE
8
Layer 1
10
86.661993
20
74.989624
11
86.683091
21
74.692039
0
LINE
8
Layer 1
10
86.683091
20
74.692039
11
86.743051
21
74.503643
0
LINE
8
Layer 1
10
86.743051
20
74.503643
11
86.864826
21
74.344857
0
LINE
8
Layer 1
10
86.864826
20
74.344857
11
87.189806
21
74.221604
0
LINE
8
Layer 1
10
87.189806
20
74.221604
11
87.376353
21
74.256396
0
LINE
8
Layer 1
10
87.376353
20
74.256396
11
87.458524
21
74.288597
0
LINE
8
Layer 1
10
87.458524
20
74.288597
11
87.672091
21
74.382611
0
LINE
8
Layer 1
10
87.672091
20
74.382611
11
88.362393
21
74.709065
0
LINE
8
Layer 1
10
88.362393
20
74.709065
11
90.510653
21
75.770975
0
LINE
8
Layer 1
10
90.510653
20
75.770975
11
95.109213
21
77.932165
0
LINE
8
Layer 1
10
95.109213
20
77.932165
11
96.778514
21
78.768755
0
LINE
8
Layer 1
10
96.778514
20
78.768755
11
98.378613
21
79.800215
0
LINE
8
Layer 1
10
98.378613
20
79.800215
11
99.182916
21
80.370216
0
LINE
8
Layer 1
10
99.182916
20
80.370216
11
99.182900
21
80.370200
 0 
ENDSEC
 0 
EOF