999
"DXF R12 Output" (www.mydxf.blogspot.com)
 0 
SECTION
 2 
HEADER
 9 
$ACADVER
 1 
AC1009
 9 
$EXTMIN
 10 
 0 
 20 
 0 
 9 
$EXTMAX
 10 
 8.5 
 20 
 11 
 0 
ENDSEC
 0 
SECTION
 2 
ENTITIES
0
LINE
8
Layer 1
10
101.234000
20
63.674700
11
97.161555
21
62.094551
0
LINE
8
Layer 1
10
97.161555
20
62.094551
11
93.032441
21
60.863456
0
LINE
8
Layer 1
10
93.032441
20
60.863456
11
88.865219
21
59.977178
0
LINE
8
Layer 1
10
88.865219
20
59.977178
11
84.678448
21
59.431480
0
LINE
8
Layer 1
10
84.678448
20
59.431480
11
80.490688
21
59.222126
0
LINE
8
Layer 1
10
80.490688
20
59.222126
11
76.320497
21
59.344879
0
LINE
8
Layer 1
10
76.320497
20
59.344879
11
72.186435
21
59.795504
0
LINE
8
Layer 1
10
72.186435
20
59.795504
11
68.107062
21
60.569763
0
LINE
8
Layer 1
10
68.107062
20
60.569763
11
64.100938
21
61.663420
0
LINE
8
Layer 1
10
64.100938
20
61.663420
11
60.186620
21
63.072238
0
LINE
8
Layer 1
10
60.186620
20
63.072238
11
56.382670
21
64.791982
0
LINE
8
Layer 1
10
56.382670
20
64.791982
11
52.707645
21
66.818414
0
LINE
8
Layer 1
10
52.707645
20
66.818414
11
49.180107
21
69.147299
0
LINE
8
Layer 1
10
49.180107
20
69.147299
11
45.818613
21
71.774399
0
LINE
8
Layer 1
10
45.818613
20
71.774399
11
42.641725
21
74.695478
0
LINE
8
Layer 1
10
42.641725
20
74.695478
11
39.668000
21
77.906300
0
LINE
8
Layer 1
10
39.668000
20
77.906300
11
36.609488
21
81.786556
0
LINE
8
Layer 1
10
36.609488
20
81.786556
11
33.942489
21
85.790238
0
LINE
8
Layer 1
10
33.942489
20
85.790238
11
31.657753
21
89.898886
0
LINE
8
Layer 1
10
31.657753
20
89.898886
11
29.746027
21
94.094039
0
LINE
8
Layer 1
10
29.746027
20
94.094039
11
28.198061
21
98.357240
0
LINE
8
Layer 1
10
28.198061
20
98.357240
11
27.004602
21
102.670027
0
LINE
8
Layer 1
10
27.004602
20
102.670027
11
26.156399
21
107.013943
0
LINE
8
Layer 1
10
26.156399
20
107.013943
11
25.644200
21
111.370527
0
LINE
8
Layer 1
10
25.644200
20
111.370527
11
25.458754
21
115.721319
0
LINE
8
Layer 1
10
25.458754
20
115.721319
11
25.590809
21
120.047861
0
LINE
8
Layer 1
10
25.590809
20
120.047861
11
26.031114
21
124.331692
0
LINE
8
Layer 1
10
26.031114
20
124.331692
11
26.770416
21
128.554354
0
LINE
8
Layer 1
10
26.770416
20
128.554354
11
27.799465
21
132.697386
0
LINE
8
Layer 1
10
27.799465
20
132.697386
11
29.109009
21
136.742330
0
LINE
8
Layer 1
10
29.109009
20
136.742330
11
30.689796
21
140.670725
0
LINE
8
Layer 1
10
30.689796
20
140.670725
11
32.532575
21
144.464112
0
LINE
8
Layer 1
10
32.532575
20
144.464112
11
34.628094
21
148.104033
0
LINE
8
Layer 1
10
34.628094
20
148.104033
11
36.967101
21
151.572026
0
LINE
8
Layer 1
10
36.967101
20
151.572026
11
39.540345
21
154.849633
0
LINE
8
Layer 1
10
39.540345
20
154.849633
11
42.338574
21
157.918395
0
LINE
8
Layer 1
10
42.338574
20
157.918395
11
45.352537
21
160.759851
0
LINE
8
Layer 1
10
45.352537
20
160.759851
11
48.572982
21
163.355542
0
LINE
8
Layer 1
10
48.572982
20
163.355542
11
51.990658
21
165.687009
0
LINE
8
Layer 1
10
51.990658
20
165.687009
11
55.596312
21
167.735792
0
LINE
8
Layer 1
10
55.596312
20
167.735792
11
59.380694
21
169.483432
0
LINE
8
Layer 1
10
59.380694
20
169.483432
11
63.334552
21
170.911469
0
LINE
8
Layer 1
10
63.334552
20
170.911469
11
67.448634
21
172.001444
0
LINE
8
Layer 1
10
67.448634
20
172.001444
11
71.713688
21
172.734897
0
LINE
8
Layer 1
10
71.713688
20
172.734897
11
76.120464
21
173.093368
0
LINE
8
Layer 1
10
76.120464
20
173.093368
11
80.659708
21
173.058399
0
LINE
8
Layer 1
10
80.659708
20
173.058399
11
85.322171
21
172.611529
0
LINE
8
Layer 1
10
85.322171
20
172.611529
11
90.098600
21
171.734300
0
LINE
8
Layer 1
10
90.098600
20
171.734300
11
91.811117
21
171.559739
0
LINE
8
Layer 1
10
91.811117
20
171.559739
11
92.510321
21
171.677169
0
LINE
8
Layer 1
10
92.510321
20
171.677169
11
93.067887
21
171.946413
0
LINE
8
Layer 1
10
93.067887
20
171.946413
11
93.456119
21
172.378973
0
LINE
8
Layer 1
10
93.456119
20
172.378973
11
93.647314
21
172.986355
0
LINE
8
Layer 1
10
93.647314
20
172.986355
11
93.613774
21
173.780062
0
LINE
8
Layer 1
10
93.613774
20
173.780062
11
93.327800
21
174.771600
0
LINE
8
Layer 1
10
93.327800
20
174.771600
11
91.820381
21
179.128397
0
LINE
8
Layer 1
10
91.820381
20
179.128397
11
90.709225
21
183.265725
0
LINE
8
Layer 1
10
90.709225
20
183.265725
11
89.942731
21
187.204566
0
LINE
8
Layer 1
10
89.942731
20
187.204566
11
89.469300
21
190.965900
0
LINE
8
Layer 1
10
89.469300
20
190.965900
11
90.646820
21
192.158143
0
LINE
8
Layer 1
10
90.646820
20
192.158143
11
91.890889
21
193.136291
0
LINE
8
Layer 1
10
91.890889
20
193.136291
11
93.200586
21
193.903525
0
LINE
8
Layer 1
10
93.200586
20
193.903525
11
94.574987
21
194.463025
0
LINE
8
Layer 1
10
94.574987
20
194.463025
11
96.013172
21
194.817972
0
LINE
8
Layer 1
10
96.013172
20
194.817972
11
97.514217
21
194.971547
0
LINE
8
Layer 1
10
97.514217
20
194.971547
11
99.077201
21
194.926929
0
LINE
8
Layer 1
10
99.077201
20
194.926929
11
100.701200
21
194.687300
0
LINE
8
Layer 1
10
100.701200
20
194.687300
11
102.386799
21
192.287176
0
LINE
8
Layer 1
10
102.386799
20
192.287176
11
103.927380
21
189.815905
0
LINE
8
Layer 1
10
103.927380
20
189.815905
11
105.310805
21
187.272771
0
LINE
8
Layer 1
10
105.310805
20
187.272771
11
106.524937
21
184.657062
0
LINE
8
Layer 1
10
106.524937
20
184.657062
11
107.557640
21
181.968065
0
LINE
8
Layer 1
10
107.557640
20
181.968065
11
108.396777
21
179.205064
0
LINE
8
Layer 1
10
108.396777
20
179.205064
11
109.030209
21
176.367347
0
LINE
8
Layer 1
10
109.030209
20
176.367347
11
109.445800
21
173.454200
0
LINE
8
Layer 1
10
109.445800
20
173.454200
11
109.686444
21
172.289878
0
LINE
8
Layer 1
10
109.686444
20
172.289878
11
110.188875
21
171.562225
0
LINE
8
Layer 1
10
110.188875
20
171.562225
11
111.050669
21
171.254684
0
LINE
8
Layer 1
10
111.050669
20
171.254684
11
112.369400
21
171.350700
0
LINE
8
Layer 1
10
112.369400
20
171.350700
11
117.184040
21
172.043739
0
LINE
8
Layer 1
10
117.184040
20
172.043739
11
121.879864
21
172.332048
0
LINE
8
Layer 1
10
121.879864
20
172.332048
11
126.447859
21
172.232788
0
LINE
8
Layer 1
10
126.447859
20
172.232788
11
130.879012
21
171.763123
0
LINE
8
Layer 1
10
130.879012
20
171.763123
11
135.164309
21
170.940214
0
LINE
8
Layer 1
10
135.164309
20
170.940214
11
139.294737
21
169.781223
0
LINE
8
Layer 1
10
139.294737
20
169.781223
11
143.261284
21
168.303314
0
LINE
8
Layer 1
10
143.261284
20
168.303314
11
147.054936
21
166.523647
0
LINE
8
Layer 1
10
147.054936
20
166.523647
11
150.666680
21
164.459385
0
LINE
8
Layer 1
10
150.666680
20
164.459385
11
154.087503
21
162.127691
0
LINE
8
Layer 1
10
154.087503
20
162.127691
11
157.308392
21
159.545726
0
LINE
8
Layer 1
10
157.308392
20
159.545726
11
160.320333
21
156.730654
0
LINE
8
Layer 1
10
160.320333
20
156.730654
11
163.114314
21
153.699635
0
LINE
8
Layer 1
10
163.114314
20
153.699635
11
165.681321
21
150.469832
0
LINE
8
Layer 1
10
165.681321
20
150.469832
11
168.012342
21
147.058408
0
LINE
8
Layer 1
10
168.012342
20
147.058408
11
170.098362
21
143.482525
0
LINE
8
Layer 1
10
170.098362
20
143.482525
11
171.930370
21
139.759345
0
LINE
8
Layer 1
10
171.930370
20
139.759345
11
173.499352
21
135.906029
0
LINE
8
Layer 1
10
173.499352
20
135.906029
11
174.796294
21
131.939742
0
LINE
8
Layer 1
10
174.796294
20
131.939742
11
175.812184
21
127.877643
0
LINE
8
Layer 1
10
175.812184
20
127.877643
11
176.538009
21
123.736897
0
LINE
8
Layer 1
10
176.538009
20
123.736897
11
176.964755
21
119.534665
0
LINE
8
Layer 1
10
176.964755
20
119.534665
11
177.083409
21
115.288108
0
LINE
8
Layer 1
10
177.083409
20
115.288108
11
176.884958
21
111.014391
0
LINE
8
Layer 1
10
176.884958
20
111.014391
11
176.360389
21
106.730674
0
LINE
8
Layer 1
10
176.360389
20
106.730674
11
175.500689
21
102.454119
0
LINE
8
Layer 1
10
175.500689
20
102.454119
11
174.296845
21
98.201890
0
LINE
8
Layer 1
10
174.296845
20
98.201890
11
172.739843
21
93.991149
0
LINE
8
Layer 1
10
172.739843
20
93.991149
11
170.820671
21
89.839057
0
LINE
8
Layer 1
10
170.820671
20
89.839057
11
168.530315
21
85.762776
0
LINE
8
Layer 1
10
168.530315
20
85.762776
11
165.859763
21
81.779470
0
LINE
8
Layer 1
10
165.859763
20
81.779470
11
162.800000
21
77.906300
0
LINE
8
Layer 1
10
162.800000
20
77.906300
11
159.826292
21
74.695445
0
LINE
8
Layer 1
10
159.826292
20
74.695445
11
156.649415
21
71.774341
0
LINE
8
Layer 1
10
156.649415
20
71.774341
11
153.287930
21
69.147224
0
LINE
8
Layer 1
10
153.287930
20
69.147224
11
149.760397
21
66.818330
0
LINE
8
Layer 1
10
149.760397
20
66.818330
11
146.085375
21
64.791893
0
LINE
8
Layer 1
10
146.085375
20
64.791893
11
142.281424
21
63.072150
0
LINE
8
Layer 1
10
142.281424
20
63.072150
11
138.367104
21
61.663336
0
LINE
8
Layer 1
10
138.367104
20
61.663336
11
134.360975
21
60.569687
0
LINE
8
Layer 1
10
134.360975
20
60.569687
11
130.281597
21
59.795439
0
LINE
8
Layer 1
10
130.281597
20
59.795439
11
126.147529
21
59.344826
0
LINE
8
Layer 1
10
126.147529
20
59.344826
11
121.977332
21
59.222085
0
LINE
8
Layer 1
10
121.977332
20
59.222085
11
117.789566
21
59.431452
0
LINE
8
Layer 1
10
117.789566
20
59.431452
11
113.602789
21
59.977161
0
LINE
8
Layer 1
10
113.602789
20
59.977161
11
109.435563
21
60.863448
0
LINE
8
Layer 1
10
109.435563
20
60.863448
11
105.306447
21
62.094549
0
LINE
8
Layer 1
10
105.306447
20
62.094549
11
101.234000
21
63.674700
0
LINE
8
Layer 1
10
101.234000
20
63.674700
11
101.234000
21
63.674700
0
LINE
8
Layer 1
10
59.991800
20
102.821400
11
59.326495
21
104.253169
0
LINE
8
Layer 1
10
59.326495
20
104.253169
11
59.241986
21
104.813859
0
LINE
8
Layer 1
10
59.241986
20
104.813859
11
59.329112
21
105.264375
0
LINE
8
Layer 1
10
59.329112
20
105.264375
11
59.592531
21
105.599681
0
LINE
8
Layer 1
10
59.592531
20
105.599681
11
60.036898
21
105.814744
0
LINE
8
Layer 1
10
60.036898
20
105.814744
11
61.487100
21
105.864000
0
LINE
8
Layer 1
10
61.487100
20
105.864000
11
67.909162
21
104.956913
0
LINE
8
Layer 1
10
67.909162
20
104.956913
11
74.303400
21
103.860900
0
LINE
8
Layer 1
10
74.303400
20
103.860900
11
74.966889
21
103.642630
0
LINE
8
Layer 1
10
74.966889
20
103.642630
11
75.461263
21
103.278137
0
LINE
8
Layer 1
10
75.461263
20
103.278137
11
75.774380
21
102.807352
0
LINE
8
Layer 1
10
75.774380
20
102.807352
11
75.894100
21
102.270200
0
LINE
8
Layer 1
10
75.894100
20
102.270200
11
75.894100
21
96.860800
0
LINE
8
Layer 1
10
75.894100
20
96.860800
11
75.871902
21
95.539708
0
LINE
8
Layer 1
10
75.871902
20
95.539708
11
76.000912
21
94.964237
0
LINE
8
Layer 1
10
76.000912
20
94.964237
11
76.577242
21
94.837023
0
LINE
8
Layer 1
10
76.577242
20
94.837023
11
77.897000
21
94.860700
0
LINE
8
Layer 1
10
77.897000
20
94.860700
11
82.918300
21
94.861100
0
LINE
8
Layer 1
10
82.918300
20
94.861100
11
87.936600
21
94.860700
0
LINE
8
Layer 1
10
87.936600
20
94.860700
11
89.258050
21
94.836827
0
LINE
8
Layer 1
10
89.258050
20
94.836827
11
89.835725
21
94.963787
0
LINE
8
Layer 1
10
89.835725
20
94.963787
11
89.965312
21
95.539230
0
LINE
8
Layer 1
10
89.965312
20
95.539230
11
89.942500
21
96.860800
0
LINE
8
Layer 1
10
89.942500
20
96.860800
11
89.941600
21
99.850400
0
LINE
8
Layer 1
10
89.941600
20
99.850400
11
89.982762
21
101.245837
0
LINE
8
Layer 1
10
89.982762
20
101.245837
11
90.253275
21
101.965750
0
LINE
8
Layer 1
10
90.253275
20
101.965750
11
90.972325
21
102.232587
0
LINE
8
Layer 1
10
90.972325
20
102.232587
11
92.359100
21
102.268800
0
LINE
8
Layer 1
10
92.359100
20
102.268800
11
101.231600
21
102.268800
0
LINE
8
Layer 1
10
101.231600
20
102.268800
11
110.104100
21
102.268800
0
LINE
8
Layer 1
10
110.104100
20
102.268800
11
111.490875
21
102.232587
0
LINE
8
Layer 1
10
111.490875
20
102.232587
11
112.209925
21
101.965750
0
LINE
8
Layer 1
10
112.209925
20
101.965750
11
112.480437
21
101.245837
0
LINE
8
Layer 1
10
112.480437
20
101.245837
11
112.521600
21
99.850400
0
LINE
8
Layer 1
10
112.521600
20
99.850400
11
112.520700
21
96.860800
0
LINE
8
Layer 1
10
112.520700
20
96.860800
11
112.497887
21
95.539230
0
LINE
8
Layer 1
10
112.497887
20
95.539230
11
112.627475
21
94.963787
0
LINE
8
Layer 1
10
112.627475
20
94.963787
11
113.205150
21
94.836827
0
LINE
8
Layer 1
10
113.205150
20
94.836827
11
114.526600
21
94.860700
0
LINE
8
Layer 1
10
114.526600
20
94.860700
11
119.544900
21
94.861100
0
LINE
8
Layer 1
10
119.544900
20
94.861100
11
124.566200
21
94.860700
0
LINE
8
Layer 1
10
124.566200
20
94.860700
11
125.885958
21
94.837023
0
LINE
8
Layer 1
10
125.885958
20
94.837023
11
126.462287
21
94.964237
0
LINE
8
Layer 1
10
126.462287
20
94.964237
11
126.591298
21
95.539708
0
LINE
8
Layer 1
10
126.591298
20
95.539708
11
126.569100
21
96.860800
0
LINE
8
Layer 1
10
126.569100
20
96.860800
11
126.569100
21
102.270200
0
LINE
8
Layer 1
10
126.569100
20
102.270200
11
126.688820
21
102.807352
0
LINE
8
Layer 1
10
126.688820
20
102.807352
11
127.001937
21
103.278137
0
LINE
8
Layer 1
10
127.001937
20
103.278137
11
127.496311
21
103.642630
0
LINE
8
Layer 1
10
127.496311
20
103.642630
11
128.159800
21
103.860900
0
LINE
8
Layer 1
10
128.159800
20
103.860900
11
134.554037
21
104.956913
0
LINE
8
Layer 1
10
134.554037
20
104.956913
11
140.976100
21
105.864000
0
LINE
8
Layer 1
10
140.976100
20
105.864000
11
142.426302
21
105.814744
0
LINE
8
Layer 1
10
142.426302
20
105.814744
11
142.870669
21
105.599681
0
LINE
8
Layer 1
10
142.870669
20
105.599681
11
143.134087
21
105.264375
0
LINE
8
Layer 1
10
143.134087
20
105.264375
11
143.221214
21
104.813859
0
LINE
8
Layer 1
10
143.221214
20
104.813859
11
143.136705
21
104.253169
0
LINE
8
Layer 1
10
143.136705
20
104.253169
11
142.471400
21
102.821400
0
LINE
8
Layer 1
10
142.471400
20
102.821400
11
140.306103
21
99.426173
0
LINE
8
Layer 1
10
140.306103
20
99.426173
11
138.061028
21
96.249994
0
LINE
8
Layer 1
10
138.061028
20
96.249994
11
135.741492
21
93.292861
0
LINE
8
Layer 1
10
135.741492
20
93.292861
11
133.352814
21
90.554775
0
LINE
8
Layer 1
10
133.352814
20
90.554775
11
130.900314
21
88.035736
0
LINE
8
Layer 1
10
130.900314
20
88.035736
11
128.389309
21
85.735744
0
LINE
8
Layer 1
10
128.389309
20
85.735744
11
125.825118
21
83.654798
0
LINE
8
Layer 1
10
125.825118
20
83.654798
11
123.213059
21
81.792900
0
LINE
8
Layer 1
10
123.213059
20
81.792900
11
120.558452
21
80.150048
0
LINE
8
Layer 1
10
120.558452
20
80.150048
11
117.866615
21
78.726244
0
LINE
8
Layer 1
10
117.866615
20
78.726244
11
115.142866
21
77.521486
0
LINE
8
Layer 1
10
115.142866
20
77.521486
11
112.392525
21
76.535775
0
LINE
8
Layer 1
10
112.392525
20
76.535775
11
109.620909
21
75.769111
0
LINE
8
Layer 1
10
109.620909
20
75.769111
11
106.833337
21
75.221494
0
LINE
8
Layer 1
10
106.833337
20
75.221494
11
104.035128
21
74.892923
0
LINE
8
Layer 1
10
104.035128
20
74.892923
11
101.231600
21
74.783400
0
LINE
8
Layer 1
10
101.231600
20
74.783400
11
98.428072
21
74.892923
0
LINE
8
Layer 1
10
98.428072
20
74.892923
11
95.629863
21
75.221494
0
LINE
8
Layer 1
10
95.629863
20
75.221494
11
92.842291
21
75.769111
0
LINE
8
Layer 1
10
92.842291
20
75.769111
11
90.070675
21
76.535775
0
LINE
8
Layer 1
10
90.070675
20
76.535775
11
87.320334
21
77.521486
0
LINE
8
Layer 1
10
87.320334
20
77.521486
11
84.596585
21
78.726244
0
LINE
8
Layer 1
10
84.596585
20
78.726244
11
81.904748
21
80.150048
0
LINE
8
Layer 1
10
81.904748
20
80.150048
11
79.250141
21
81.792900
0
LINE
8
Layer 1
10
79.250141
20
81.792900
11
76.638082
21
83.654798
0
LINE
8
Layer 1
10
76.638082
20
83.654798
11
74.073891
21
85.735744
0
LINE
8
Layer 1
10
74.073891
20
85.735744
11
71.562886
21
88.035736
0
LINE
8
Layer 1
10
71.562886
20
88.035736
11
69.110386
21
90.554775
0
LINE
8
Layer 1
10
69.110386
20
90.554775
11
66.721708
21
93.292861
0
LINE
8
Layer 1
10
66.721708
20
93.292861
11
64.402172
21
96.249994
0
LINE
8
Layer 1
10
64.402172
20
96.249994
11
62.157097
21
99.426173
0
LINE
8
Layer 1
10
62.157097
20
99.426173
11
59.991800
21
102.821400
0
LINE
8
Layer 1
10
59.991800
20
102.821400
11
59.991800
21
102.821400
0
LINE
8
Layer 1
10
101.240800
20
116.641400
11
106.007100
21
116.641400
0
LINE
8
Layer 1
10
106.007100
20
116.641400
11
107.807555
21
116.878589
0
LINE
8
Layer 1
10
107.807555
20
116.878589
11
108.385422
21
117.174297
0
LINE
8
Layer 1
10
108.385422
20
117.174297
11
108.755437
21
117.587388
0
LINE
8
Layer 1
10
108.755437
20
117.587388
11
108.922892
21
118.117342
0
LINE
8
Layer 1
10
108.922892
20
118.117342
11
108.893077
21
118.763642
0
LINE
8
Layer 1
10
108.893077
20
118.763642
11
108.262800
21
120.403200
0
LINE
8
Layer 1
10
108.262800
20
120.403200
11
103.148700
21
129.963800
0
LINE
8
Layer 1
10
103.148700
20
129.963800
11
102.749942
21
130.549175
0
LINE
8
Layer 1
10
102.749942
20
130.549175
11
102.284141
21
130.967300
0
LINE
8
Layer 1
10
102.284141
20
130.967300
11
101.773644
21
131.218175
0
LINE
8
Layer 1
10
101.773644
20
131.218175
11
101.240800
21
131.301800
0
LINE
8
Layer 1
10
101.240800
20
131.301800
11
100.707956
21
131.218175
0
LINE
8
Layer 1
10
100.707956
20
131.218175
11
100.197459
21
130.967300
0
LINE
8
Layer 1
10
100.197459
20
130.967300
11
99.731658
21
130.549175
0
LINE
8
Layer 1
10
99.731658
20
130.549175
11
99.332900
21
129.963800
0
LINE
8
Layer 1
10
99.332900
20
129.963800
11
94.218800
21
120.403200
0
LINE
8
Layer 1
10
94.218800
20
120.403200
11
93.588523
21
118.763642
0
LINE
8
Layer 1
10
93.588523
20
118.763642
11
93.558708
21
118.117342
0
LINE
8
Layer 1
10
93.558708
20
118.117342
11
93.726163
21
117.587388
0
LINE
8
Layer 1
10
93.726163
20
117.587388
11
94.096178
21
117.174297
0
LINE
8
Layer 1
10
94.096178
20
117.174297
11
94.674045
21
116.878589
0
LINE
8
Layer 1
10
94.674045
20
116.878589
11
96.474500
21
116.641400
0
LINE
8
Layer 1
10
96.474500
20
116.641400
11
101.240800
21
116.641400
0
LINE
8
Layer 1
10
101.240800
20
116.641400
11
101.240800
21
116.641400
0
LINE
8
Layer 1
10
67.297400
20
132.231500
11
65.081429
21
132.206123
0
LINE
8
Layer 1
10
65.081429
20
132.206123
11
63.426647
21
132.316969
0
LINE
8
Layer 1
10
63.426647
20
132.316969
11
62.300892
21
132.597905
0
LINE
8
Layer 1
10
62.300892
20
132.597905
11
61.672000
21
133.082800
0
LINE
8
Layer 1
10
61.672000
20
133.082800
11
61.507808
21
133.805520
0
LINE
8
Layer 1
10
61.507808
20
133.805520
11
61.776153
21
134.799931
0
LINE
8
Layer 1
10
61.776153
20
134.799931
11
62.444871
21
136.099902
0
LINE
8
Layer 1
10
62.444871
20
136.099902
11
63.481800
21
137.739300
0
LINE
8
Layer 1
10
63.481800
20
137.739300
11
74.309100
21
154.023200
0
LINE
8
Layer 1
10
74.309100
20
154.023200
11
76.148912
21
156.735522
0
LINE
8
Layer 1
10
76.148912
20
156.735522
11
76.856177
21
157.553355
0
LINE
8
Layer 1
10
76.856177
20
157.553355
11
77.481725
21
157.944825
0
LINE
8
Layer 1
10
77.481725
20
157.944825
11
78.070588
21
157.859323
0
LINE
8
Layer 1
10
78.070588
20
157.859323
11
78.667800
21
157.246241
0
LINE
8
Layer 1
10
78.667800
20
157.246241
11
79.318393
21
156.054969
0
LINE
8
Layer 1
10
79.318393
20
156.054969
11
80.067400
21
154.234900
0
LINE
8
Layer 1
10
80.067400
20
154.234900
11
86.012900
21
138.506600
0
LINE
8
Layer 1
10
86.012900
20
138.506600
11
87.045563
21
135.795500
0
LINE
8
Layer 1
10
87.045563
20
135.795500
11
87.309709
21
134.819989
0
LINE
8
Layer 1
10
87.309709
20
134.819989
11
87.316375
21
134.065100
0
LINE
8
Layer 1
10
87.316375
20
134.065100
11
86.998545
21
133.506280
0
LINE
8
Layer 1
10
86.998545
20
133.506280
11
86.289200
21
133.118975
0
LINE
8
Layer 1
10
86.289200
20
133.118975
11
85.121324
21
132.878633
0
LINE
8
Layer 1
10
85.121324
20
132.878633
11
83.427900
21
132.760700
0
LINE
8
Layer 1
10
83.427900
20
132.760700
11
75.387900
21
132.496900
0
LINE
8
Layer 1
10
75.387900
20
132.496900
11
67.297400
21
132.231500
0
LINE
8
Layer 1
10
67.297400
20
132.231500
11
67.297400
21
132.231500
0
LINE
8
Layer 1
10
133.247400
20
132.231500
11
135.463371
21
132.206123
0
LINE
8
Layer 1
10
135.463371
20
132.206123
11
137.118153
21
132.316969
0
LINE
8
Layer 1
10
137.118153
20
132.316969
11
138.243908
21
132.597905
0
LINE
8
Layer 1
10
138.243908
20
132.597905
11
138.872800
21
133.082800
0
LINE
8
Layer 1
10
138.872800
20
133.082800
11
139.036992
21
133.805520
0
LINE
8
Layer 1
10
139.036992
20
133.805520
11
138.768647
21
134.799931
0
LINE
8
Layer 1
10
138.768647
20
134.799931
11
138.099929
21
136.099902
0
LINE
8
Layer 1
10
138.099929
20
136.099902
11
137.063000
21
137.739300
0
LINE
8
Layer 1
10
137.063000
20
137.739300
11
126.235700
21
154.023200
0
LINE
8
Layer 1
10
126.235700
20
154.023200
11
124.395888
21
156.735522
0
LINE
8
Layer 1
10
124.395888
20
156.735522
11
123.688623
21
157.553355
0
LINE
8
Layer 1
10
123.688623
20
157.553355
11
123.063075
21
157.944825
0
LINE
8
Layer 1
10
123.063075
20
157.944825
11
122.474212
21
157.859323
0
LINE
8
Layer 1
10
122.474212
20
157.859323
11
121.877000
21
157.246241
0
LINE
8
Layer 1
10
121.877000
20
157.246241
11
121.226407
21
156.054969
0
LINE
8
Layer 1
10
121.226407
20
156.054969
11
120.477400
21
154.234900
0
LINE
8
Layer 1
10
120.477400
20
154.234900
11
114.531900
21
138.506600
0
LINE
8
Layer 1
10
114.531900
20
138.506600
11
113.499238
21
135.795500
0
LINE
8
Layer 1
10
113.499238
20
135.795500
11
113.235091
21
134.819989
0
LINE
8
Layer 1
10
113.235091
20
134.819989
11
113.228425
21
134.065100
0
LINE
8
Layer 1
10
113.228425
20
134.065100
11
113.546255
21
133.506280
0
LINE
8
Layer 1
10
113.546255
20
133.506280
11
114.255600
21
133.118975
0
LINE
8
Layer 1
10
114.255600
20
133.118975
11
115.423476
21
132.878633
0
LINE
8
Layer 1
10
115.423476
20
132.878633
11
117.116900
21
132.760700
0
LINE
8
Layer 1
10
117.116900
20
132.760700
11
125.156900
21
132.496900
0
LINE
8
Layer 1
10
125.156900
20
132.496900
11
133.247400
21
132.231500
0
LINE
8
Layer 1
10
133.247400
20
132.231500
11
133.247400
21
132.231500
 0 
ENDSEC
 0 
EOF