999
"DXF R12 Output" (www.mydxf.blogspot.com)
 0 
SECTION
 2 
HEADER
 9 
$ACADVER
 1 
AC1009
 9 
$EXTMIN
 10 
 0 
 20 
 0 
 9 
$EXTMAX
 10 
 8.5 
 20 
 11 
 0 
ENDSEC
 0 
SECTION
 2 
ENTITIES
0
LINE
8
Layer 1
10
116.005000
20
69.103500
11
114.087587
21
69.293744
0
LINE
8
Layer 1
10
114.087587
20
69.293744
11
112.272700
21
69.739025
0
LINE
8
Layer 1
10
112.272700
20
69.739025
11
108.951400
21
70.649200
0
LINE
8
Layer 1
10
108.951400
20
70.649200
11
106.464237
21
71.034086
0
LINE
8
Layer 1
10
106.464237
20
71.034086
11
104.779425
21
71.117838
0
LINE
8
Layer 1
10
104.779425
20
71.117838
11
103.208275
21
70.946945
0
LINE
8
Layer 1
10
103.208275
20
70.946945
11
101.062100
21
70.567900
0
LINE
8
Layer 1
10
101.062100
20
70.567900
11
96.178812
21
69.575087
0
LINE
8
Layer 1
10
96.178812
20
69.575087
11
93.617173
21
69.199464
0
LINE
8
Layer 1
10
93.617173
20
69.199464
11
90.876500
21
69.103300
0
LINE
8
Layer 1
10
90.876500
20
69.103300
11
85.418023
21
69.561762
0
LINE
8
Layer 1
10
85.418023
20
69.561762
11
80.201337
21
70.565267
0
LINE
8
Layer 1
10
80.201337
20
70.565267
11
75.229058
21
72.102742
0
LINE
8
Layer 1
10
75.229058
20
72.102742
11
70.503800
21
74.163112
0
LINE
8
Layer 1
10
70.503800
20
74.163112
11
66.028180
21
76.735307
0
LINE
8
Layer 1
10
66.028180
20
76.735307
11
61.804812
21
79.808252
0
LINE
8
Layer 1
10
61.804812
20
79.808252
11
57.836314
21
83.370874
0
LINE
8
Layer 1
10
57.836314
20
83.370874
11
54.125300
21
87.412100
0
LINE
8
Layer 1
10
54.125300
20
87.412100
11
51.049959
21
91.384058
0
LINE
8
Layer 1
10
51.049959
20
91.384058
11
48.365811
21
95.468962
0
LINE
8
Layer 1
10
48.365811
20
95.468962
11
46.063795
21
99.649212
0
LINE
8
Layer 1
10
46.063795
20
99.649212
11
44.134853
21
103.907208
0
LINE
8
Layer 1
10
44.134853
20
103.907208
11
42.569926
21
108.225349
0
LINE
8
Layer 1
10
42.569926
20
108.225349
11
41.359955
21
112.586036
0
LINE
8
Layer 1
10
41.359955
20
112.586036
11
40.495880
21
116.971669
0
LINE
8
Layer 1
10
40.495880
20
116.971669
11
39.968644
21
121.364648
0
LINE
8
Layer 1
10
39.968644
20
121.364648
11
39.769186
21
125.747373
0
LINE
8
Layer 1
10
39.769186
20
125.747373
11
39.888447
21
130.102244
0
LINE
8
Layer 1
10
39.888447
20
130.102244
11
40.317370
21
134.411661
0
LINE
8
Layer 1
10
40.317370
20
134.411661
11
41.046894
21
138.658024
0
LINE
8
Layer 1
10
41.046894
20
138.658024
11
42.067960
21
142.823734
0
LINE
8
Layer 1
10
42.067960
20
142.823734
11
43.371510
21
146.891189
0
LINE
8
Layer 1
10
43.371510
20
146.891189
11
44.948485
21
150.842790
0
LINE
8
Layer 1
10
44.948485
20
150.842790
11
46.789825
21
154.660937
0
LINE
8
Layer 1
10
46.789825
20
154.660937
11
48.886472
21
158.328031
0
LINE
8
Layer 1
10
48.886472
20
158.328031
11
51.229365
21
161.826471
0
LINE
8
Layer 1
10
51.229365
20
161.826471
11
53.809448
21
165.138657
0
LINE
8
Layer 1
10
53.809448
20
165.138657
11
56.617659
21
168.246990
0
LINE
8
Layer 1
10
56.617659
20
168.246990
11
59.644941
21
171.133868
0
LINE
8
Layer 1
10
59.644941
20
171.133868
11
62.882235
21
173.781693
0
LINE
8
Layer 1
10
62.882235
20
173.781693
11
66.320480
21
176.172865
0
LINE
8
Layer 1
10
66.320480
20
176.172865
11
69.950619
21
178.289783
0
LINE
8
Layer 1
10
69.950619
20
178.289783
11
73.763592
21
180.114847
0
LINE
8
Layer 1
10
73.763592
20
180.114847
11
77.750340
21
181.630458
0
LINE
8
Layer 1
10
77.750340
20
181.630458
11
81.901804
21
182.819015
0
LINE
8
Layer 1
10
81.901804
20
182.819015
11
86.208925
21
183.662919
0
LINE
8
Layer 1
10
86.208925
20
183.662919
11
90.662644
21
184.144569
0
LINE
8
Layer 1
10
90.662644
20
184.144569
11
95.253903
21
184.246366
0
LINE
8
Layer 1
10
95.253903
20
184.246366
11
99.973641
21
183.950710
0
LINE
8
Layer 1
10
99.973641
20
183.950710
11
104.812800
21
183.240000
0
LINE
8
Layer 1
10
104.812800
20
183.240000
11
106.138233
21
183.141547
0
LINE
8
Layer 1
10
106.138233
20
183.141547
11
107.004412
21
183.456925
0
LINE
8
Layer 1
10
107.004412
20
183.456925
11
107.509411
21
184.203141
0
LINE
8
Layer 1
10
107.509411
20
184.203141
11
107.751300
21
185.397200
0
LINE
8
Layer 1
10
107.751300
20
185.397200
11
108.169004
21
188.384642
0
LINE
8
Layer 1
10
108.169004
20
188.384642
11
108.805659
21
191.294733
0
LINE
8
Layer 1
10
108.805659
20
191.294733
11
109.649066
21
194.128204
0
LINE
8
Layer 1
10
109.649066
20
194.128204
11
110.687025
21
196.885787
0
LINE
8
Layer 1
10
110.687025
20
196.885787
11
111.907337
21
199.568217
0
LINE
8
Layer 1
10
111.907337
20
199.568217
11
113.297803
21
202.176223
0
LINE
8
Layer 1
10
113.297803
20
202.176223
11
114.846224
21
204.710540
0
LINE
8
Layer 1
10
114.846224
20
204.710540
11
116.540400
21
207.171900
0
LINE
8
Layer 1
10
116.540400
20
207.171900
11
118.172681
21
207.417623
0
LINE
8
Layer 1
10
118.172681
20
207.417623
11
119.743633
21
207.463367
0
LINE
8
Layer 1
10
119.743633
20
207.463367
11
121.252327
21
207.305868
0
LINE
8
Layer 1
10
121.252327
20
207.305868
11
122.697838
21
206.941863
0
LINE
8
Layer 1
10
122.697838
20
206.941863
11
124.079237
21
206.368087
0
LINE
8
Layer 1
10
124.079237
20
206.368087
11
125.395598
21
205.581277
0
LINE
8
Layer 1
10
125.395598
20
205.581277
11
126.645995
21
204.578169
0
LINE
8
Layer 1
10
126.645995
20
204.578169
11
127.829500
21
203.355500
0
LINE
8
Layer 1
10
127.829500
20
203.355500
11
127.353667
21
199.498247
0
LINE
8
Layer 1
10
127.353667
20
199.498247
11
126.583263
21
195.458950
0
LINE
8
Layer 1
10
126.583263
20
195.458950
11
125.466452
21
191.216103
0
LINE
8
Layer 1
10
125.466452
20
191.216103
11
123.951400
21
186.748200
0
LINE
8
Layer 1
10
123.951400
20
186.748200
11
123.663944
21
185.731348
0
LINE
8
Layer 1
10
123.663944
20
185.731348
11
123.630216
21
184.917377
0
LINE
8
Layer 1
10
123.630216
20
184.917377
11
123.822373
21
184.294489
0
LINE
8
Layer 1
10
123.822373
20
184.294489
11
124.212575
21
183.850887
0
LINE
8
Layer 1
10
124.212575
20
183.850887
11
124.772980
21
183.574775
0
LINE
8
Layer 1
10
124.772980
20
183.574775
11
125.475747
21
183.454355
0
LINE
8
Layer 1
10
125.475747
20
183.454355
11
127.197000
21
183.633400
0
LINE
8
Layer 1
10
127.197000
20
183.633400
11
131.997754
21
184.532997
0
LINE
8
Layer 1
10
131.997754
20
184.532997
11
136.683962
21
184.991257
0
LINE
8
Layer 1
10
136.683962
20
184.991257
11
141.246325
21
185.027111
0
LINE
8
Layer 1
10
141.246325
20
185.027111
11
145.675544
21
184.659489
0
LINE
8
Layer 1
10
145.675544
20
184.659489
11
149.962320
21
183.907322
0
LINE
8
Layer 1
10
149.962320
20
183.907322
11
154.097354
21
182.789540
0
LINE
8
Layer 1
10
154.097354
20
182.789540
11
158.071349
21
181.325073
0
LINE
8
Layer 1
10
158.071349
20
181.325073
11
161.875005
21
179.532852
0
LINE
8
Layer 1
10
161.875005
20
179.532852
11
165.499023
21
177.431806
0
LINE
8
Layer 1
10
165.499023
20
177.431806
11
168.934105
21
175.040867
0
LINE
8
Layer 1
10
168.934105
20
175.040867
11
172.170953
21
172.378964
0
LINE
8
Layer 1
10
172.170953
20
172.378964
11
175.200267
21
169.465029
0
LINE
8
Layer 1
10
175.200267
20
169.465029
11
178.012748
21
166.317990
0
LINE
8
Layer 1
10
178.012748
20
166.317990
11
180.599099
21
162.956780
0
LINE
8
Layer 1
10
180.599099
20
162.956780
11
182.950020
21
159.400327
0
LINE
8
Layer 1
10
182.950020
20
159.400327
11
185.056213
21
155.667562
0
LINE
8
Layer 1
10
185.056213
20
155.667562
11
186.908378
21
151.777417
0
LINE
8
Layer 1
10
186.908378
20
151.777417
11
188.497218
21
147.748820
0
LINE
8
Layer 1
10
188.497218
20
147.748820
11
189.813433
21
143.600702
0
LINE
8
Layer 1
10
189.813433
20
143.600702
11
190.847726
21
139.351995
0
LINE
8
Layer 1
10
190.847726
20
139.351995
11
191.590796
21
135.021627
0
LINE
8
Layer 1
10
191.590796
20
135.021627
11
192.033346
21
130.628530
0
LINE
8
Layer 1
10
192.033346
20
130.628530
11
192.166076
21
126.191633
0
LINE
8
Layer 1
10
192.166076
20
126.191633
11
191.979689
21
121.729867
0
LINE
8
Layer 1
10
191.979689
20
121.729867
11
191.464885
21
117.262163
0
LINE
8
Layer 1
10
191.464885
20
117.262163
11
190.612366
21
112.807450
0
LINE
8
Layer 1
10
190.612366
20
112.807450
11
189.412832
21
108.384660
0
LINE
8
Layer 1
10
189.412832
20
108.384660
11
187.856986
21
104.012722
0
LINE
8
Layer 1
10
187.856986
20
104.012722
11
185.935529
21
99.710566
0
LINE
8
Layer 1
10
185.935529
20
99.710566
11
183.639161
21
95.497124
0
LINE
8
Layer 1
10
183.639161
20
95.497124
11
180.958584
21
91.391325
0
LINE
8
Layer 1
10
180.958584
20
91.391325
11
177.884500
21
87.412100
0
LINE
8
Layer 1
10
177.884500
20
87.412100
11
174.173552
21
83.370874
0
LINE
8
Layer 1
10
174.173552
20
83.370874
11
170.205103
21
79.808252
0
LINE
8
Layer 1
10
170.205103
20
79.808252
11
165.981771
21
76.735307
0
LINE
8
Layer 1
10
165.981771
20
76.735307
11
161.506175
21
74.163112
0
LINE
8
Layer 1
10
161.506175
20
74.163112
11
156.780932
21
72.102742
0
LINE
8
Layer 1
10
156.780932
20
72.102742
11
151.808659
21
70.565267
0
LINE
8
Layer 1
10
151.808659
20
70.565267
11
146.591976
21
69.561762
0
LINE
8
Layer 1
10
146.591976
20
69.561762
11
141.133500
21
69.103300
0
LINE
8
Layer 1
10
141.133500
20
69.103300
11
138.392827
21
69.199464
0
LINE
8
Layer 1
10
138.392827
20
69.199464
11
135.831187
21
69.575087
0
LINE
8
Layer 1
10
135.831187
20
69.575087
11
130.947900
21
70.567900
0
LINE
8
Layer 1
10
130.947900
20
70.567900
11
128.801725
21
70.946945
0
LINE
8
Layer 1
10
128.801725
20
70.946945
11
127.230575
21
71.117838
0
LINE
8
Layer 1
10
127.230575
20
71.117838
11
125.545763
21
71.034086
0
LINE
8
Layer 1
10
125.545763
20
71.034086
11
123.058600
21
70.649200
0
LINE
8
Layer 1
10
123.058600
20
70.649200
11
119.737300
21
69.739025
0
LINE
8
Layer 1
10
119.737300
20
69.739025
11
117.922413
21
69.293744
0
LINE
8
Layer 1
10
117.922413
20
69.293744
11
116.005000
21
69.103500
0
LINE
8
Layer 1
10
116.005000
20
69.103500
11
116.005000
21
69.103500
0
LINE
8
Layer 1
10
148.659000
20
160.998000
11
150.879294
21
161.399376
0
LINE
8
Layer 1
10
150.879294
20
161.399376
11
152.558822
21
161.566009
0
LINE
8
Layer 1
10
152.558822
20
161.566009
11
153.735489
21
161.468619
0
LINE
8
Layer 1
10
153.735489
20
161.468619
11
154.447200
21
161.077925
0
LINE
8
Layer 1
10
154.447200
20
161.077925
11
154.731861
21
160.364646
0
LINE
8
Layer 1
10
154.731861
20
160.364646
11
154.627378
21
159.299503
0
LINE
8
Layer 1
10
154.627378
20
159.299503
11
154.171656
21
157.853214
0
LINE
8
Layer 1
10
154.171656
20
157.853214
11
153.402600
21
155.996500
0
LINE
8
Layer 1
10
153.402600
20
155.996500
11
145.233800
21
137.464400
0
LINE
8
Layer 1
10
145.233800
20
137.464400
11
143.836637
21
134.371494
0
LINE
8
Layer 1
10
143.836637
20
134.371494
11
143.262252
21
133.413064
0
LINE
8
Layer 1
10
143.262252
20
133.413064
11
142.699200
21
132.905675
0
LINE
8
Layer 1
10
142.699200
20
132.905675
11
142.093886
21
132.893595
0
LINE
8
Layer 1
10
142.093886
20
132.893595
11
141.392712
21
133.421094
0
LINE
8
Layer 1
10
141.392712
20
133.421094
11
140.542083
21
134.532439
0
LINE
8
Layer 1
10
140.542083
20
134.532439
11
139.488400
21
136.271900
0
LINE
8
Layer 1
10
139.488400
20
136.271900
11
130.911900
21
151.393300
0
LINE
8
Layer 1
10
130.911900
20
151.393300
11
129.425728
21
153.998394
0
LINE
8
Layer 1
10
129.425728
20
153.998394
11
128.998813
21
154.953967
0
LINE
8
Layer 1
10
128.998813
20
154.953967
11
128.866950
21
155.726925
0
LINE
8
Layer 1
10
128.866950
20
155.726925
11
129.093343
21
156.353792
0
LINE
8
Layer 1
10
129.093343
20
156.353792
11
129.741197
21
156.871094
0
LINE
8
Layer 1
10
129.741197
20
156.871094
11
130.873714
21
157.315355
0
LINE
8
Layer 1
10
130.873714
20
157.315355
11
132.554100
21
157.723100
0
LINE
8
Layer 1
10
132.554100
20
157.723100
11
140.581300
21
159.355500
0
LINE
8
Layer 1
10
140.581300
20
159.355500
11
148.659000
21
160.998000
0
LINE
8
Layer 1
10
148.659000
20
160.998000
11
148.659000
21
160.998000
0
LINE
8
Layer 1
10
83.195000
20
160.998000
11
80.974706
21
161.399376
0
LINE
8
Layer 1
10
80.974706
20
161.399376
11
79.295178
21
161.566009
0
LINE
8
Layer 1
10
79.295178
20
161.566009
11
78.118511
21
161.468619
0
LINE
8
Layer 1
10
78.118511
20
161.468619
11
77.406800
21
161.077925
0
LINE
8
Layer 1
10
77.406800
20
161.077925
11
77.122139
21
160.364646
0
LINE
8
Layer 1
10
77.122139
20
160.364646
11
77.226622
21
159.299503
0
LINE
8
Layer 1
10
77.226622
20
159.299503
11
77.682344
21
157.853214
0
LINE
8
Layer 1
10
77.682344
20
157.853214
11
78.451400
21
155.996500
0
LINE
8
Layer 1
10
78.451400
20
155.996500
11
86.620200
21
137.464400
0
LINE
8
Layer 1
10
86.620200
20
137.464400
11
88.017363
21
134.371494
0
LINE
8
Layer 1
10
88.017363
20
134.371494
11
88.591748
21
133.413064
0
LINE
8
Layer 1
10
88.591748
20
133.413064
11
89.154800
21
132.905675
0
LINE
8
Layer 1
10
89.154800
20
132.905675
11
89.760114
21
132.893595
0
LINE
8
Layer 1
10
89.760114
20
132.893595
11
90.461287
21
133.421094
0
LINE
8
Layer 1
10
90.461287
20
133.421094
11
91.311917
21
134.532439
0
LINE
8
Layer 1
10
91.311917
20
134.532439
11
92.365600
21
136.271900
0
LINE
8
Layer 1
10
92.365600
20
136.271900
11
100.942100
21
151.393300
0
LINE
8
Layer 1
10
100.942100
20
151.393300
11
102.428272
21
153.998394
0
LINE
8
Layer 1
10
102.428272
20
153.998394
11
102.855187
21
154.953967
0
LINE
8
Layer 1
10
102.855187
20
154.953967
11
102.987050
21
155.726925
0
LINE
8
Layer 1
10
102.987050
20
155.726925
11
102.760657
21
156.353792
0
LINE
8
Layer 1
10
102.760657
20
156.353792
11
102.112803
21
156.871094
0
LINE
8
Layer 1
10
102.112803
20
156.871094
11
100.980286
21
157.315355
0
LINE
8
Layer 1
10
100.980286
20
157.315355
11
99.299900
21
157.723100
0
LINE
8
Layer 1
10
99.299900
20
157.723100
11
91.272700
21
159.355500
0
LINE
8
Layer 1
10
91.272700
20
159.355500
11
83.195000
21
160.998000
0
LINE
8
Layer 1
10
83.195000
20
160.998000
11
83.195000
21
160.998000
0
LINE
8
Layer 1
10
115.950500
20
132.563700
11
120.263400
21
132.563700
0
LINE
8
Layer 1
10
120.263400
20
132.563700
11
121.892552
21
132.409594
0
LINE
8
Layer 1
10
121.892552
20
132.409594
11
122.415446
21
132.217467
0
LINE
8
Layer 1
10
122.415446
20
132.217467
11
122.750262
21
131.949075
0
LINE
8
Layer 1
10
122.750262
20
131.949075
11
122.901784
21
131.604755
0
LINE
8
Layer 1
10
122.901784
20
131.604755
11
122.874792
21
131.184844
0
LINE
8
Layer 1
10
122.874792
20
131.184844
11
122.304400
21
130.119600
0
LINE
8
Layer 1
10
122.304400
20
130.119600
11
117.676900
21
123.908000
0
LINE
8
Layer 1
10
117.676900
20
123.908000
11
116.894597
21
123.256006
0
LINE
8
Layer 1
10
116.894597
20
123.256006
11
115.950500
21
123.038675
0
LINE
8
Layer 1
10
115.950500
20
123.038675
11
115.006403
21
123.256006
0
LINE
8
Layer 1
10
115.006403
20
123.256006
11
114.224100
21
123.908000
0
LINE
8
Layer 1
10
114.224100
20
123.908000
11
109.596600
21
130.119600
0
LINE
8
Layer 1
10
109.596600
20
130.119600
11
109.026208
21
131.184844
0
LINE
8
Layer 1
10
109.026208
20
131.184844
11
108.999216
21
131.604755
0
LINE
8
Layer 1
10
108.999216
20
131.604755
11
109.150737
21
131.949075
0
LINE
8
Layer 1
10
109.150737
20
131.949075
11
109.485554
21
132.217467
0
LINE
8
Layer 1
10
109.485554
20
132.217467
11
110.008448
21
132.409594
0
LINE
8
Layer 1
10
110.008448
20
132.409594
11
111.637600
21
132.563700
0
LINE
8
Layer 1
10
111.637600
20
132.563700
11
115.950500
21
132.563700
0
LINE
8
Layer 1
10
115.950500
20
132.563700
11
115.950500
21
132.563700
0
LINE
8
Layer 1
10
118.390900
20
84.659800
11
119.367548
21
84.788467
0
LINE
8
Layer 1
10
119.367548
20
84.788467
11
120.243912
21
85.154387
0
LINE
8
Layer 1
10
120.243912
20
85.154387
11
121.045070
21
85.863114
0
LINE
8
Layer 1
10
121.045070
20
85.863114
11
121.796100
21
87.020200
0
LINE
8
Layer 1
10
121.796100
20
87.020200
11
128.748000
21
100.017800
0
LINE
8
Layer 1
10
128.748000
20
100.017800
11
129.529475
21
99.535153
0
LINE
8
Layer 1
10
129.529475
20
99.535153
11
130.406348
21
98.545183
0
LINE
8
Layer 1
10
130.406348
20
98.545183
11
132.253537
21
95.620762
0
LINE
8
Layer 1
10
132.253537
20
95.620762
11
133.904058
21
92.399511
0
LINE
8
Layer 1
10
133.904058
20
92.399511
11
134.972400
21
90.036400
0
LINE
8
Layer 1
10
134.972400
20
90.036400
11
135.648555
21
88.731256
0
LINE
8
Layer 1
10
135.648555
20
88.731256
11
136.495962
21
87.833250
0
LINE
8
Layer 1
10
136.495962
20
87.833250
11
137.613464
21
87.401819
0
LINE
8
Layer 1
10
137.613464
20
87.401819
11
139.099900
21
87.496400
0
LINE
8
Layer 1
10
139.099900
20
87.496400
11
141.391546
21
88.119107
0
LINE
8
Layer 1
10
141.391546
20
88.119107
11
143.704256
21
88.970317
0
LINE
8
Layer 1
10
143.704256
20
88.970317
11
146.014721
21
90.035318
0
LINE
8
Layer 1
10
146.014721
20
90.035318
11
148.299631
21
91.299394
0
LINE
8
Layer 1
10
148.299631
20
91.299394
11
150.535676
21
92.747832
0
LINE
8
Layer 1
10
150.535676
20
92.747832
11
152.699547
21
94.365917
0
LINE
8
Layer 1
10
152.699547
20
94.365917
11
154.767933
21
96.138936
0
LINE
8
Layer 1
10
154.767933
20
96.138936
11
156.717525
21
98.052175
0
LINE
8
Layer 1
10
156.717525
20
98.052175
11
158.525013
21
100.090919
0
LINE
8
Layer 1
10
158.525013
20
100.090919
11
160.167087
21
102.240455
0
LINE
8
Layer 1
10
160.167087
20
102.240455
11
161.620438
21
104.486068
0
LINE
8
Layer 1
10
161.620438
20
104.486068
11
162.861756
21
106.813044
0
LINE
8
Layer 1
10
162.861756
20
106.813044
11
163.867731
21
109.206669
0
LINE
8
Layer 1
10
163.867731
20
109.206669
11
164.615053
21
111.652230
0
LINE
8
Layer 1
10
164.615053
20
111.652230
11
165.080413
21
114.135011
0
LINE
8
Layer 1
10
165.080413
20
114.135011
11
165.240500
21
116.640300
0
LINE
8
Layer 1
10
165.240500
20
116.640300
11
164.978061
21
117.607589
0
LINE
8
Layer 1
10
164.978061
20
117.607589
11
164.307012
21
118.242187
0
LINE
8
Layer 1
10
164.307012
20
118.242187
11
163.401308
21
118.446192
0
LINE
8
Layer 1
10
163.401308
20
118.446192
11
162.434900
21
118.121700
0
LINE
8
Layer 1
10
162.434900
20
118.121700
11
159.499016
21
116.356792
0
LINE
8
Layer 1
10
159.499016
20
116.356792
11
156.728450
21
114.992337
0
LINE
8
Layer 1
10
156.728450
20
114.992337
11
151.097600
21
112.684300
0
LINE
8
Layer 1
10
151.097600
20
112.684300
11
150.165141
21
112.216335
0
LINE
8
Layer 1
10
150.165141
20
112.216335
11
149.344212
21
111.625276
0
LINE
8
Layer 1
10
149.344212
20
111.625276
11
147.977819
21
110.135439
0
LINE
8
Layer 1
10
147.977819
20
110.135439
11
146.880179
21
108.337917
0
LINE
8
Layer 1
10
146.880179
20
108.337917
11
145.933050
21
106.355837
0
LINE
8
Layer 1
10
145.933050
20
106.355837
11
145.018190
21
104.312328
0
LINE
8
Layer 1
10
145.018190
20
104.312328
11
144.017356
21
102.330517
0
LINE
8
Layer 1
10
144.017356
20
102.330517
11
142.812307
21
100.533532
0
LINE
8
Layer 1
10
142.812307
20
100.533532
11
141.284800
21
99.044500
0
LINE
8
Layer 1
10
141.284800
20
99.044500
11
137.259800
21
106.453000
0
LINE
8
Layer 1
10
137.259800
20
106.453000
11
136.834434
21
106.977098
0
LINE
8
Layer 1
10
136.834434
20
106.977098
11
136.276975
21
107.284662
0
LINE
8
Layer 1
10
136.276975
20
107.284662
11
135.618903
21
107.404595
0
LINE
8
Layer 1
10
135.618903
20
107.404595
11
134.891700
21
107.365800
0
LINE
8
Layer 1
10
134.891700
20
107.365800
11
124.764600
21
106.151531
0
LINE
8
Layer 1
10
124.764600
20
106.151531
11
120.266081
21
105.847964
0
LINE
8
Layer 1
10
120.266081
20
105.847964
11
115.929000
21
105.746775
0
LINE
8
Layer 1
10
115.929000
20
105.746775
11
111.591919
21
105.847964
0
LINE
8
Layer 1
10
111.591919
20
105.847964
11
107.093400
21
106.151531
0
LINE
8
Layer 1
10
107.093400
20
106.151531
11
96.966300
21
107.365800
0
LINE
8
Layer 1
10
96.966300
20
107.365800
11
96.239097
21
107.404595
0
LINE
8
Layer 1
10
96.239097
20
107.404595
11
95.581025
21
107.284662
0
LINE
8
Layer 1
10
95.581025
20
107.284662
11
95.023566
21
106.977098
0
LINE
8
Layer 1
10
95.023566
20
106.977098
11
94.598200
21
106.453000
0
LINE
8
Layer 1
10
94.598200
20
106.453000
11
90.573200
21
99.044500
0
LINE
8
Layer 1
10
90.573200
20
99.044500
11
89.045693
21
100.533532
0
LINE
8
Layer 1
10
89.045693
20
100.533532
11
87.840644
21
102.330517
0
LINE
8
Layer 1
10
87.840644
20
102.330517
11
86.839810
21
104.312328
0
LINE
8
Layer 1
10
86.839810
20
104.312328
11
85.924950
21
106.355837
0
LINE
8
Layer 1
10
85.924950
20
106.355837
11
84.977821
21
108.337917
0
LINE
8
Layer 1
10
84.977821
20
108.337917
11
83.880181
21
110.135439
0
LINE
8
Layer 1
10
83.880181
20
110.135439
11
82.513788
21
111.625276
0
LINE
8
Layer 1
10
82.513788
20
111.625276
11
81.692859
21
112.216335
0
LINE
8
Layer 1
10
81.692859
20
112.216335
11
80.760400
21
112.684300
0
LINE
8
Layer 1
10
80.760400
20
112.684300
11
75.129550
21
114.992337
0
LINE
8
Layer 1
10
75.129550
20
114.992337
11
72.358984
21
116.356792
0
LINE
8
Layer 1
10
72.358984
20
116.356792
11
69.423100
21
118.121700
0
LINE
8
Layer 1
10
69.423100
20
118.121700
11
68.456692
21
118.446192
0
LINE
8
Layer 1
10
68.456692
20
118.446192
11
67.550987
21
118.242187
0
LINE
8
Layer 1
10
67.550987
20
118.242187
11
66.879939
21
117.607589
0
LINE
8
Layer 1
10
66.879939
20
117.607589
11
66.617500
21
116.640300
0
LINE
8
Layer 1
10
66.617500
20
116.640300
11
66.777587
21
114.135011
0
LINE
8
Layer 1
10
66.777587
20
114.135011
11
67.242947
21
111.652230
0
LINE
8
Layer 1
10
67.242947
20
111.652230
11
67.990269
21
109.206669
0
LINE
8
Layer 1
10
67.990269
20
109.206669
11
68.996244
21
106.813044
0
LINE
8
Layer 1
10
68.996244
20
106.813044
11
70.237562
21
104.486068
0
LINE
8
Layer 1
10
70.237562
20
104.486068
11
71.690912
21
102.240455
0
LINE
8
Layer 1
10
71.690912
20
102.240455
11
73.332987
21
100.090919
0
LINE
8
Layer 1
10
73.332987
20
100.090919
11
75.140475
21
98.052175
0
LINE
8
Layer 1
10
75.140475
20
98.052175
11
77.090067
21
96.138936
0
LINE
8
Layer 1
10
77.090067
20
96.138936
11
79.158453
21
94.365917
0
LINE
8
Layer 1
10
79.158453
20
94.365917
11
81.322324
21
92.747832
0
LINE
8
Layer 1
10
81.322324
20
92.747832
11
83.558369
21
91.299394
0
LINE
8
Layer 1
10
83.558369
20
91.299394
11
85.843279
21
90.035318
0
LINE
8
Layer 1
10
85.843279
20
90.035318
11
88.153744
21
88.970317
0
LINE
8
Layer 1
10
88.153744
20
88.970317
11
90.466454
21
88.119107
0
LINE
8
Layer 1
10
90.466454
20
88.119107
11
92.758100
21
87.496400
0
LINE
8
Layer 1
10
92.758100
20
87.496400
11
94.244536
21
87.401819
0
LINE
8
Layer 1
10
94.244536
20
87.401819
11
95.362037
21
87.833250
0
LINE
8
Layer 1
10
95.362037
20
87.833250
11
96.209445
21
88.731256
0
LINE
8
Layer 1
10
96.209445
20
88.731256
11
96.885600
21
90.036400
0
LINE
8
Layer 1
10
96.885600
20
90.036400
11
97.953942
21
92.399511
0
LINE
8
Layer 1
10
97.953942
20
92.399511
11
99.604462
21
95.620762
0
LINE
8
Layer 1
10
99.604462
20
95.620762
11
101.451652
21
98.545183
0
LINE
8
Layer 1
10
101.451652
20
98.545183
11
102.328525
21
99.535153
0
LINE
8
Layer 1
10
102.328525
20
99.535153
11
103.110000
21
100.017800
0
LINE
8
Layer 1
10
103.110000
20
100.017800
11
110.061900
21
87.020200
0
LINE
8
Layer 1
10
110.061900
20
87.020200
11
110.812131
21
85.864045
0
LINE
8
Layer 1
10
110.812131
20
85.864045
11
111.612350
21
85.155462
0
LINE
8
Layer 1
10
111.612350
20
85.155462
11
112.487569
21
84.789198
0
LINE
8
Layer 1
10
112.487569
20
84.789198
11
113.462800
21
84.660000
0
LINE
8
Layer 1
10
113.462800
20
84.660000
11
118.390900
21
84.659800
0
LINE
8
Layer 1
10
118.390900
20
84.659800
11
118.390900
21
84.659800
 0 
ENDSEC
 0 
EOF