999
"DXF R12 Output" (www.mydxf.blogspot.com)
 0 
SECTION
 2 
HEADER
 9 
$ACADVER
 1 
AC1009
 9 
$EXTMIN
 10 
 0 
 20 
 0 
 9 
$EXTMAX
 10 
 8.5 
 20 
 11 
 0 
ENDSEC
 0 
SECTION
 2 
ENTITIES
0
LINE
8
Capa 1
10
126.572000
20
184.976000
11
126.580000
21
184.997100
0
LINE
8
Capa 1
10
126.580000
20
184.997100
11
126.593100
21
185.017400
0
LINE
8
Capa 1
10
126.593100
20
185.017400
11
126.612900
21
185.037500
0
LINE
8
Capa 1
10
126.612900
20
185.037500
11
126.640500
21
185.058400
0
LINE
8
Capa 1
10
126.640500
20
185.058400
11
126.723900
21
185.105300
0
LINE
8
Capa 1
10
126.723900
20
185.105300
11
126.992800
21
185.224600
0
LINE
8
Capa 1
10
126.992800
20
185.224600
11
127.361800
21
185.374200
0
LINE
8
Capa 1
10
127.361800
20
185.374200
11
127.451000
21
185.401500
0
LINE
8
Capa 1
10
127.451000
20
185.401500
11
127.493000
21
185.407500
0
LINE
8
Capa 1
10
127.493000
20
185.407500
11
128.074200
21
185.572700
0
LINE
8
Capa 1
10
128.074200
20
185.572700
11
128.318900
21
185.634300
0
LINE
8
Capa 1
10
128.318900
20
185.634300
11
128.565100
21
185.725600
0
LINE
8
Capa 1
10
128.565100
20
185.725600
11
129.101400
21
185.955000
0
LINE
8
Capa 1
10
129.101400
20
185.955000
11
129.494800
21
186.138000
0
LINE
8
Capa 1
10
129.494800
20
186.138000
11
129.762100
21
186.254100
0
LINE
8
Capa 1
10
129.762100
20
186.254100
11
130.109100
21
186.388600
0
LINE
8
Capa 1
10
130.109100
20
186.388600
11
130.555700
21
186.547000
0
LINE
8
Capa 1
10
130.555700
20
186.547000
11
130.758000
21
186.623000
0
LINE
8
Capa 1
10
130.758000
20
186.623000
11
130.984100
21
186.716500
0
LINE
8
Capa 1
10
130.984100
20
186.716500
11
131.234300
21
186.844600
0
LINE
8
Capa 1
10
131.234300
20
186.844600
11
131.583800
21
187.012600
0
LINE
8
Capa 1
10
131.583800
20
187.012600
11
131.912900
21
187.157200
0
LINE
8
Capa 1
10
131.912900
20
187.157200
11
131.976500
21
187.195300
0
LINE
8
Capa 1
10
131.976500
20
187.195300
11
132.035200
21
187.238200
0
LINE
8
Capa 1
10
132.035200
20
187.238200
11
132.121900
21
187.319800
0
LINE
8
Capa 1
10
132.121900
20
187.319800
11
132.164400
21
187.351500
0
LINE
8
Capa 1
10
132.164400
20
187.351500
11
132.204200
21
187.372700
0
LINE
8
Capa 1
10
132.204200
20
187.372700
11
132.261700
21
187.386500
0
LINE
8
Capa 1
10
132.261700
20
187.386500
11
132.297600
21
187.403200
0
LINE
8
Capa 1
10
132.297600
20
187.403200
11
132.382300
21
187.455800
0
LINE
8
Capa 1
10
132.382300
20
187.455800
11
132.454200
21
187.512900
0
LINE
8
Capa 1
10
132.454200
20
187.512900
11
132.474100
21
187.535200
0
LINE
8
Capa 1
10
132.474100
20
187.535200
11
132.477100
21
187.549200
0
LINE
8
Capa 1
10
132.477100
20
187.549200
11
132.999200
21
187.975900
0
LINE
8
Capa 1
10
132.999200
20
187.975900
11
133.160400
21
188.116900
0
LINE
8
Capa 1
10
133.160400
20
188.116900
11
133.322900
21
188.267800
0
LINE
8
Capa 1
10
133.322900
20
188.267800
11
133.486100
21
188.428300
0
LINE
8
Capa 1
10
133.486100
20
188.428300
11
133.649700
21
188.598000
0
LINE
8
Capa 1
10
133.649700
20
188.598000
11
133.813400
21
188.776500
0
LINE
8
Capa 1
10
133.813400
20
188.776500
11
133.976900
21
188.963500
0
LINE
8
Capa 1
10
133.976900
20
188.963500
11
134.211400
21
189.245100
0
LINE
8
Capa 1
10
134.211400
20
189.245100
11
134.733500
21
189.850200
0
LINE
8
Capa 1
10
134.733500
20
189.850200
11
135.814300
21
191.059400
0
LINE
8
Capa 1
10
135.814300
20
191.059400
11
135.927900
21
191.167900
0
LINE
8
Capa 1
10
135.927900
20
191.167900
11
136.104000
21
191.358800
0
LINE
8
Capa 1
10
136.104000
20
191.358800
11
136.821600
21
192.205900
0
LINE
8
Capa 1
10
136.821600
20
192.205900
11
137.064700
21
192.510000
0
LINE
8
Capa 1
10
137.064700
20
192.510000
11
137.740800
21
193.471300
0
LINE
8
Capa 1
10
137.740800
20
193.471300
11
138.047700
21
193.903600
0
LINE
8
Capa 1
10
138.047700
20
193.903600
11
138.599400
21
194.650900
0
LINE
8
Capa 1
10
138.599400
20
194.650900
11
138.763400
21
194.878600
0
LINE
8
Capa 1
10
138.763400
20
194.878600
11
138.908300
21
195.086800
0
LINE
8
Capa 1
10
138.908300
20
195.086800
11
139.103300
21
195.384300
0
LINE
8
Capa 1
10
139.103300
20
195.384300
11
139.197800
21
195.521700
0
LINE
8
Capa 1
10
139.197800
20
195.521700
11
139.287400
21
195.644800
0
LINE
8
Capa 1
10
139.287400
20
195.644800
11
139.425700
21
195.816300
0
LINE
8
Capa 1
10
139.425700
20
195.816300
11
139.555900
21
195.985500
0
LINE
8
Capa 1
10
139.555900
20
195.985500
11
139.627500
21
196.092000
0
LINE
8
Capa 1
10
139.627500
20
196.092000
11
139.675400
21
196.189900
0
LINE
8
Capa 1
10
139.675400
20
196.189900
11
139.752200
21
196.389600
0
LINE
8
Capa 1
10
139.752200
20
196.389600
11
139.860200
21
196.737900
0
LINE
8
Capa 1
10
139.860200
20
196.737900
11
139.915000
21
196.940300
0
LINE
8
Capa 1
10
139.915000
20
196.940300
11
140.022700
21
197.385799
0
LINE
8
Capa 1
10
140.022700
20
197.385799
11
140.123300
21
197.865199
0
LINE
8
Capa 1
10
140.123300
20
197.865199
11
140.211200
21
198.353499
0
LINE
8
Capa 1
10
140.211200
20
198.353499
11
140.248600
21
198.593299
0
LINE
8
Capa 1
10
140.248600
20
198.593299
11
140.280700
21
198.825899
0
LINE
8
Capa 1
10
140.280700
20
198.825899
11
140.306700
21
199.048399
0
LINE
8
Capa 1
10
140.306700
20
199.048399
11
140.403000
21
200.202899
0
LINE
8
Capa 1
10
140.403000
20
200.202899
11
140.418400
21
200.510799
0
LINE
8
Capa 1
10
140.418400
20
200.510799
11
140.414400
21
200.551399
0
LINE
8
Capa 1
10
140.414400
20
200.551399
11
140.404400
21
200.556899
0
LINE
8
Capa 1
10
140.404400
20
200.556899
11
140.349500
21
200.573099
0
LINE
8
Capa 1
10
140.349500
20
200.573099
11
139.801700
21
200.680599
0
LINE
8
Capa 1
10
139.801700
20
200.680599
11
139.300300
21
200.797899
0
LINE
8
Capa 1
10
139.300300
20
200.797899
11
139.234300
21
200.816099
0
LINE
8
Capa 1
10
139.234300
20
200.816099
11
139.155100
21
200.850999
0
LINE
8
Capa 1
10
139.155100
20
200.850999
11
139.124300
21
200.874999
0
LINE
8
Capa 1
10
139.124300
20
200.874999
11
139.105700
21
200.903799
0
LINE
8
Capa 1
10
139.105700
20
200.903799
11
139.085200
21
200.908299
0
LINE
8
Capa 1
10
139.085200
20
200.908299
11
139.057200
21
200.899699
0
LINE
8
Capa 1
10
139.057200
20
200.899699
11
138.840300
21
200.769199
0
LINE
8
Capa 1
10
138.840300
20
200.769199
11
138.264100
21
200.468799
0
LINE
8
Capa 1
10
138.264100
20
200.468799
11
137.679300
21
200.186199
0
LINE
8
Capa 1
10
137.679300
20
200.186199
11
137.503400
21
200.111699
0
LINE
8
Capa 1
10
137.503400
20
200.111699
11
137.405900
21
200.087799
0
LINE
8
Capa 1
10
137.405900
20
200.087799
11
137.322800
21
200.078099
0
LINE
8
Capa 1
10
137.322800
20
200.078099
11
137.238800
21
200.075599
0
LINE
8
Capa 1
10
137.238800
20
200.075599
11
137.159000
21
200.079899
0
LINE
8
Capa 1
10
137.159000
20
200.079899
11
137.088000
21
200.090499
0
LINE
8
Capa 1
10
137.088000
20
200.090499
11
137.030600
21
200.106899
0
LINE
8
Capa 1
10
137.030600
20
200.106899
11
136.991500
21
200.128599
0
LINE
8
Capa 1
10
136.991500
20
200.128599
11
136.980400
21
200.141299
0
LINE
8
Capa 1
10
136.980400
20
200.141299
11
136.975400
21
200.155099
0
LINE
8
Capa 1
10
136.975400
20
200.155099
11
136.976400
21
200.170799
0
LINE
8
Capa 1
10
136.976400
20
200.170799
11
137.004900
21
200.251699
0
LINE
8
Capa 1
10
137.004900
20
200.251699
11
137.085000
21
200.410099
0
LINE
8
Capa 1
10
137.085000
20
200.410099
11
137.188100
21
200.581299
0
LINE
8
Capa 1
10
137.188100
20
200.581299
11
137.239800
21
200.656299
0
LINE
8
Capa 1
10
137.239800
20
200.656299
11
137.330100
21
200.770599
0
LINE
8
Capa 1
10
137.330100
20
200.770599
11
137.376500
21
200.838099
0
LINE
8
Capa 1
10
137.376500
20
200.838099
11
137.420800
21
200.909899
0
LINE
8
Capa 1
10
137.420800
20
200.909899
11
137.499400
21
201.052199
0
LINE
8
Capa 1
10
137.499400
20
201.052199
11
137.627300
21
201.238699
0
LINE
8
Capa 1
10
137.627300
20
201.238699
11
137.768100
21
201.414099
0
LINE
8
Capa 1
10
137.768100
20
201.414099
11
137.837500
21
201.512899
0
LINE
8
Capa 1
10
137.837500
20
201.512899
11
137.859500
21
201.563999
0
LINE
8
Capa 1
10
137.859500
20
201.563999
11
137.863500
21
201.586699
0
LINE
8
Capa 1
10
137.863500
20
201.586699
11
137.857500
21
201.629199
0
LINE
8
Capa 1
10
137.857500
20
201.629199
11
137.832300
21
201.671299
0
LINE
8
Capa 1
10
137.832300
20
201.671299
11
137.812900
21
201.693399
0
LINE
8
Capa 1
10
137.812900
20
201.693399
11
137.664300
21
201.828799
0
LINE
8
Capa 1
10
137.664300
20
201.828799
11
137.605200
21
201.891599
0
LINE
8
Capa 1
10
137.605200
20
201.891599
11
137.556600
21
201.951599
0
LINE
8
Capa 1
10
137.556600
20
201.951599
11
137.500100
21
202.045599
0
LINE
8
Capa 1
10
137.500100
20
202.045599
11
137.476600
21
202.071399
0
LINE
8
Capa 1
10
137.476600
20
202.071399
11
137.453800
21
202.079499
0
LINE
8
Capa 1
10
137.453800
20
202.079499
11
137.413500
21
202.061399
0
LINE
8
Capa 1
10
137.413500
20
202.061399
11
137.220300
21
202.000199
0
LINE
8
Capa 1
10
137.220300
20
202.000199
11
136.639400
21
201.855999
0
LINE
8
Capa 1
10
136.639400
20
201.855999
11
136.268700
21
201.783899
0
LINE
8
Capa 1
10
136.268700
20
201.783899
11
136.165600
21
201.775799
0
LINE
8
Capa 1
10
136.165600
20
201.775799
11
136.125600
21
201.778799
0
LINE
8
Capa 1
10
136.125600
20
201.778799
11
136.090800
21
201.786799
0
LINE
8
Capa 1
10
136.090800
20
201.786799
11
136.059600
21
201.799999
0
LINE
8
Capa 1
10
136.059600
20
201.799999
11
136.030100
21
201.818699
0
LINE
8
Capa 1
10
136.030100
20
201.818699
11
136.000500
21
201.843199
0
LINE
8
Capa 1
10
136.000500
20
201.843199
11
135.962500
21
201.883599
0
LINE
8
Capa 1
10
135.962500
20
201.883599
11
135.935800
21
201.925799
0
LINE
8
Capa 1
10
135.935800
20
201.925799
11
135.920300
21
201.970699
0
LINE
8
Capa 1
10
135.920300
20
201.970699
11
135.916300
21
202.019199
0
LINE
8
Capa 1
10
135.916300
20
202.019199
11
135.923300
21
202.072199
0
LINE
8
Capa 1
10
135.923300
20
202.072199
11
135.941800
21
202.130499
0
LINE
8
Capa 1
10
135.941800
20
202.130499
11
135.971700
21
202.195099
0
LINE
8
Capa 1
10
135.971700
20
202.195099
11
136.013000
21
202.266799
0
LINE
8
Capa 1
10
136.013000
20
202.266799
11
136.039800
21
202.304699
0
LINE
8
Capa 1
10
136.039800
20
202.304699
11
136.130200
21
202.412999
0
LINE
8
Capa 1
10
136.130200
20
202.412999
11
136.330800
21
202.628799
0
LINE
8
Capa 1
10
136.330800
20
202.628799
11
136.565900
21
202.865799
0
LINE
8
Capa 1
10
136.565900
20
202.865799
11
136.848500
21
203.129799
0
LINE
8
Capa 1
10
136.848500
20
203.129799
11
136.944000
21
203.207199
0
LINE
8
Capa 1
10
136.944000
20
203.207199
11
137.000700
21
203.240699
0
LINE
8
Capa 1
10
137.000700
20
203.240699
11
137.021600
21
203.258099
0
LINE
8
Capa 1
10
137.021600
20
203.258099
11
137.037300
21
203.279699
0
LINE
8
Capa 1
10
137.037300
20
203.279699
11
137.048200
21
203.307499
0
LINE
8
Capa 1
10
137.048200
20
203.307499
11
137.055200
21
203.343299
0
LINE
8
Capa 1
10
137.055200
20
203.343299
11
137.058200
21
203.388899
0
LINE
8
Capa 1
10
137.058200
20
203.388899
11
137.053200
21
203.613999
0
LINE
8
Capa 1
10
137.053200
20
203.613999
11
137.055200
21
203.696699
0
LINE
8
Capa 1
10
137.055200
20
203.696699
11
137.065800
21
203.774499
0
LINE
8
Capa 1
10
137.065800
20
203.774499
11
137.078800
21
203.795499
0
LINE
8
Capa 1
10
137.078800
20
203.795499
11
137.079600
21
203.812499
0
LINE
8
Capa 1
10
137.079600
20
203.812499
11
137.073600
21
203.832399
0
LINE
8
Capa 1
10
137.073600
20
203.832399
11
137.051100
21
203.874799
0
LINE
8
Capa 1
10
137.051100
20
203.874799
11
137.050100
21
203.898099
0
LINE
8
Capa 1
10
137.050100
20
203.898099
11
137.058100
21
203.920199
0
LINE
8
Capa 1
10
137.058100
20
203.920199
11
137.091000
21
203.955199
0
LINE
8
Capa 1
10
137.091000
20
203.955199
11
137.101100
21
203.974099
0
LINE
8
Capa 1
10
137.101100
20
203.974099
11
137.103100
21
203.992599
0
LINE
8
Capa 1
10
137.103100
20
203.992599
11
137.091300
21
204.023799
0
LINE
8
Capa 1
10
137.091300
20
204.023799
11
137.090300
21
204.082199
0
LINE
8
Capa 1
10
137.090300
20
204.082199
11
137.111500
21
204.224599
0
LINE
8
Capa 1
10
137.111500
20
204.224599
11
137.172400
21
204.475299
0
LINE
8
Capa 1
10
137.172400
20
204.475299
11
137.212500
21
204.609099
0
LINE
8
Capa 1
10
137.212500
20
204.609099
11
137.256500
21
204.737899
0
LINE
8
Capa 1
10
137.256500
20
204.737899
11
137.318000
21
204.898599
0
LINE
8
Capa 1
10
137.318000
20
204.898599
11
137.323000
21
204.937199
0
LINE
8
Capa 1
10
137.323000
20
204.937199
11
137.317000
21
204.970199
0
LINE
8
Capa 1
10
137.317000
20
204.970199
11
137.298800
21
204.998499
0
LINE
8
Capa 1
10
137.298800
20
204.998499
11
137.268100
21
205.022599
0
LINE
8
Capa 1
10
137.268100
20
205.022599
11
137.224400
21
205.043099
0
LINE
8
Capa 1
10
137.224400
20
205.043099
11
137.166900
21
205.060799
0
LINE
8
Capa 1
10
137.166900
20
205.060799
11
136.455200
21
205.198699
0
LINE
8
Capa 1
10
136.455200
20
205.198699
11
136.058400
21
205.269399
0
LINE
8
Capa 1
10
136.058400
20
205.269399
11
135.668900
21
205.324999
0
LINE
8
Capa 1
10
135.668900
20
205.324999
11
135.279300
21
205.366499
0
LINE
8
Capa 1
10
135.279300
20
205.366499
11
134.882500
21
205.394799
0
LINE
8
Capa 1
10
134.882500
20
205.394799
11
134.069100
21
205.470699
0
LINE
8
Capa 1
10
134.069100
20
205.470699
11
133.436300
21
205.545999
0
LINE
8
Capa 1
10
133.436300
20
205.545999
11
133.153900
21
205.569599
0
LINE
8
Capa 1
10
133.153900
20
205.569599
11
133.011800
21
205.567099
0
LINE
8
Capa 1
10
133.011800
20
205.567099
11
132.934600
21
205.555799
0
LINE
8
Capa 1
10
132.934600
20
205.555799
11
132.861900
21
205.536799
0
LINE
8
Capa 1
10
132.861900
20
205.536799
11
131.713900
21
205.144299
0
LINE
8
Capa 1
10
131.713900
20
205.144299
11
131.198600
21
204.965699
0
LINE
8
Capa 1
10
131.198600
20
204.965699
11
130.569600
21
204.731399
0
LINE
8
Capa 1
10
130.569600
20
204.731399
11
129.574500
21
204.366899
0
LINE
8
Capa 1
10
129.574500
20
204.366899
11
128.898700
21
204.101999
0
LINE
8
Capa 1
10
128.898700
20
204.101999
11
128.265700
21
203.833799
0
LINE
8
Capa 1
10
128.265700
20
203.833799
11
127.572200
21
203.548799
0
LINE
8
Capa 1
10
127.572200
20
203.548799
11
126.978900
21
203.322299
0
LINE
8
Capa 1
10
126.978900
20
203.322299
11
126.387100
21
203.091799
0
LINE
8
Capa 1
10
126.387100
20
203.091799
11
126.187500
21
203.006999
0
LINE
8
Capa 1
10
126.187500
20
203.006999
11
126.001800
21
202.923399
0
LINE
8
Capa 1
10
126.001800
20
202.923399
11
125.825600
21
202.838799
0
LINE
8
Capa 1
10
125.825600
20
202.838799
11
125.654100
21
202.751299
0
LINE
8
Capa 1
10
125.654100
20
202.751299
11
124.266000
21
201.991899
0
LINE
8
Capa 1
10
124.266000
20
201.991899
11
123.640100
21
201.644199
0
LINE
8
Capa 1
10
123.640100
20
201.644199
11
123.143100
21
201.352699
0
LINE
8
Capa 1
10
123.143100
20
201.352699
11
122.864600
21
201.177099
0
LINE
8
Capa 1
10
122.864600
20
201.177099
11
122.615200
21
201.008099
0
LINE
8
Capa 1
10
122.615200
20
201.008099
11
122.383600
21
200.838299
0
LINE
8
Capa 1
10
122.383600
20
200.838299
11
122.158700
21
200.660299
0
LINE
8
Capa 1
10
122.158700
20
200.660299
11
121.768200
21
200.327099
0
LINE
8
Capa 1
10
121.768200
20
200.327099
11
121.367200
21
199.968999
0
LINE
8
Capa 1
10
121.367200
20
199.968999
11
121.146000
21
199.756899
0
LINE
8
Capa 1
10
121.146000
20
199.756899
11
120.940900
21
199.543699
0
LINE
8
Capa 1
10
120.940900
20
199.543699
11
120.734300
21
199.310099
0
LINE
8
Capa 1
10
120.734300
20
199.310099
11
120.508300
21
199.036799
0
LINE
8
Capa 1
10
120.508300
20
199.036799
11
119.927600
21
198.294299
0
LINE
8
Capa 1
10
119.927600
20
198.294299
11
119.668200
21
197.973599
0
LINE
8
Capa 1
10
119.668200
20
197.973599
11
119.104800
21
197.319799
0
LINE
8
Capa 1
10
119.104800
20
197.319799
11
118.787200
21
196.967900
0
LINE
8
Capa 1
10
118.787200
20
196.967900
11
118.559400
21
196.730200
0
LINE
8
Capa 1
10
118.559400
20
196.730200
11
118.487400
21
196.669000
0
LINE
8
Capa 1
10
118.487400
20
196.669000
11
118.465300
21
196.662000
0
LINE
8
Capa 1
10
118.465300
20
196.662000
11
118.399600
21
196.652000
0
LINE
8
Capa 1
10
118.399600
20
196.652000
11
118.266500
21
196.649000
0
LINE
8
Capa 1
10
118.266500
20
196.649000
11
118.169900
21
196.655000
0
LINE
8
Capa 1
10
118.169900
20
196.655000
11
118.068200
21
196.670500
0
LINE
8
Capa 1
10
118.068200
20
196.670500
11
117.983300
21
196.695000
0
LINE
8
Capa 1
10
117.983300
20
196.695000
11
117.914900
21
196.729000
0
LINE
8
Capa 1
10
117.914900
20
196.729000
11
117.862700
21
196.772800
0
LINE
8
Capa 1
10
117.862700
20
196.772800
11
117.826300
21
196.826800
0
LINE
8
Capa 1
10
117.826300
20
196.826800
11
117.805400
21
196.891400
0
LINE
8
Capa 1
10
117.805400
20
196.891400
11
117.799400
21
196.967000
0
LINE
8
Capa 1
10
117.799400
20
196.967000
11
117.808400
21
197.054000
0
LINE
8
Capa 1
10
117.808400
20
197.054000
11
117.816400
21
197.088300
0
LINE
8
Capa 1
10
117.816400
20
197.088300
11
117.843700
21
197.175300
0
LINE
8
Capa 1
10
117.843700
20
197.175300
11
117.941700
21
197.412900
0
LINE
8
Capa 1
10
117.941700
20
197.412900
11
118.130000
21
197.800600
0
LINE
8
Capa 1
10
118.130000
20
197.800600
11
118.318400
21
198.156200
0
LINE
8
Capa 1
10
118.318400
20
198.156200
11
118.527300
21
198.528200
0
LINE
8
Capa 1
10
118.527300
20
198.528200
11
118.744500
21
198.894500
0
LINE
8
Capa 1
10
118.744500
20
198.894500
11
118.852500
21
199.068600
0
LINE
8
Capa 1
10
118.852500
20
199.068600
11
119.059600
21
199.384500
0
LINE
8
Capa 1
10
119.059600
20
199.384500
11
119.297600
21
199.725200
0
LINE
8
Capa 1
10
119.297600
20
199.725200
11
119.795100
21
200.499000
0
LINE
8
Capa 1
10
119.795100
20
200.499000
11
120.050500
21
200.878300
0
LINE
8
Capa 1
10
120.050500
20
200.878300
11
120.338100
21
201.284700
0
LINE
8
Capa 1
10
120.338100
20
201.284700
11
120.791300
21
201.897000
0
LINE
8
Capa 1
10
120.791300
20
201.897000
11
121.020000
21
202.182300
0
LINE
8
Capa 1
10
121.020000
20
202.182300
11
121.131500
21
202.299700
0
LINE
8
Capa 1
10
121.131500
20
202.299700
11
121.206600
21
202.367900
0
LINE
8
Capa 1
10
121.206600
20
202.367900
11
121.288700
21
202.435300
0
LINE
8
Capa 1
10
121.288700
20
202.435300
11
121.498600
21
202.589900
0
LINE
8
Capa 1
10
121.498600
20
202.589900
11
121.630400
21
202.677600
0
LINE
8
Capa 1
10
121.630400
20
202.677600
11
121.935400
21
202.864400
0
LINE
8
Capa 1
10
121.935400
20
202.864400
11
122.282200
21
203.058400
0
LINE
8
Capa 1
10
122.282200
20
203.058400
11
122.677300
21
203.261700
0
LINE
8
Capa 1
10
122.677300
20
203.261700
11
122.775400
21
203.315000
0
LINE
8
Capa 1
10
122.775400
20
203.315000
11
123.622400
21
203.815500
0
LINE
8
Capa 1
10
123.622400
20
203.815500
11
123.824600
21
203.931800
0
LINE
8
Capa 1
10
123.824600
20
203.931800
11
124.029600
21
204.043700
0
LINE
8
Capa 1
10
124.029600
20
204.043700
11
124.246800
21
204.156200
0
LINE
8
Capa 1
10
124.246800
20
204.156200
11
124.616100
21
204.336100
0
LINE
8
Capa 1
10
124.616100
20
204.336100
11
125.426700
21
204.705900
0
LINE
8
Capa 1
10
125.426700
20
204.705900
11
126.109900
21
205.024700
0
LINE
8
Capa 1
10
126.109900
20
205.024700
11
126.617200
21
205.280100
0
LINE
8
Capa 1
10
126.617200
20
205.280100
11
127.533000
21
205.734300
0
LINE
8
Capa 1
10
127.533000
20
205.734300
11
128.102100
21
206.005800
0
LINE
8
Capa 1
10
128.102100
20
206.005800
11
128.918700
21
206.378300
0
LINE
8
Capa 1
10
128.918700
20
206.378300
11
130.059900
21
206.854300
0
LINE
8
Capa 1
10
130.059900
20
206.854300
11
130.578800
21
207.061700
0
LINE
8
Capa 1
10
130.578800
20
207.061700
11
131.366400
21
207.383800
0
LINE
8
Capa 1
10
131.366400
20
207.383800
11
131.534900
21
207.443800
0
LINE
8
Capa 1
10
131.534900
20
207.443800
11
131.701000
21
207.495100
0
LINE
8
Capa 1
10
131.701000
20
207.495100
11
131.864300
21
207.537500
0
LINE
8
Capa 1
10
131.864300
20
207.537500
11
132.024100
21
207.570800
0
LINE
8
Capa 1
10
132.024100
20
207.570800
11
132.180000
21
207.595000
0
LINE
8
Capa 1
10
132.180000
20
207.595000
11
132.331500
21
207.609900
0
LINE
8
Capa 1
10
132.331500
20
207.609900
11
132.478000
21
207.615500
0
LINE
8
Capa 1
10
132.478000
20
207.615500
11
132.631200
21
207.615600
0
LINE
8
Capa 1
10
132.631200
20
207.615600
11
133.046400
21
207.605500
0
LINE
8
Capa 1
10
133.046400
20
207.605500
11
133.291700
21
207.589400
0
LINE
8
Capa 1
10
133.291700
20
207.589400
11
133.516900
21
207.565100
0
LINE
8
Capa 1
10
133.516900
20
207.565100
11
133.726600
21
207.532100
0
LINE
8
Capa 1
10
133.726600
20
207.532100
11
133.925100
21
207.489700
0
LINE
8
Capa 1
10
133.925100
20
207.489700
11
134.116900
21
207.437500
0
LINE
8
Capa 1
10
134.116900
20
207.437500
11
134.366200
21
207.353700
0
LINE
8
Capa 1
10
134.366200
20
207.353700
11
135.018100
21
207.156600
0
LINE
8
Capa 1
10
135.018100
20
207.156600
11
137.128500
21
206.599400
0
LINE
8
Capa 1
10
137.128500
20
206.599400
11
137.495200
21
206.519500
0
LINE
8
Capa 1
10
137.495200
20
206.519500
11
137.241900
21
206.862900
0
LINE
8
Capa 1
10
137.241900
20
206.862900
11
136.772300
21
207.480700
0
LINE
8
Capa 1
10
136.772300
20
207.480700
11
136.684600
21
207.609300
0
LINE
8
Capa 1
10
136.684600
20
207.609300
11
136.549400
21
207.833100
0
LINE
8
Capa 1
10
136.549400
20
207.833100
11
136.372300
21
208.162400
0
LINE
8
Capa 1
10
136.372300
20
208.162400
11
136.244200
21
208.362600
0
LINE
8
Capa 1
10
136.244200
20
208.362600
11
136.118600
21
208.538900
0
LINE
8
Capa 1
10
136.118600
20
208.538900
11
135.347900
21
209.532500
0
LINE
8
Capa 1
10
135.347900
20
209.532500
11
134.771700
21
209.804500
0
LINE
8
Capa 1
10
134.771700
20
209.804500
11
134.425500
21
209.973600
0
LINE
8
Capa 1
10
134.425500
20
209.973600
11
134.120200
21
210.135400
0
LINE
8
Capa 1
10
134.120200
20
210.135400
11
133.942100
21
210.253000
0
LINE
8
Capa 1
10
133.942100
20
210.253000
11
133.565900
21
210.498000
0
LINE
8
Capa 1
10
133.565900
20
210.498000
11
133.255200
21
210.682200
0
LINE
8
Capa 1
10
133.255200
20
210.682200
11
133.218300
21
210.694900
0
LINE
8
Capa 1
10
133.218300
20
210.694900
11
132.509300
21
211.006700
0
LINE
8
Capa 1
10
132.509300
20
211.006700
11
132.281500
21
211.118000
0
LINE
8
Capa 1
10
132.281500
20
211.118000
11
132.050200
21
211.249500
0
LINE
8
Capa 1
10
132.050200
20
211.249500
11
131.358400
21
211.633200
0
LINE
8
Capa 1
10
131.358400
20
211.633200
11
131.183700
21
211.740200
0
LINE
8
Capa 1
10
131.183700
20
211.740200
11
130.665300
21
212.029400
0
LINE
8
Capa 1
10
130.665300
20
212.029400
11
130.446800
21
212.156300
0
LINE
8
Capa 1
10
130.446800
20
212.156300
11
129.623000
21
212.579400
0
LINE
8
Capa 1
10
129.623000
20
212.579400
11
129.376200
21
212.709900
0
LINE
8
Capa 1
10
129.376200
20
212.709900
11
128.759600
21
213.057600
0
LINE
8
Capa 1
10
128.759600
20
213.057600
11
128.487600
21
213.194700
0
LINE
8
Capa 1
10
128.487600
20
213.194700
11
128.020900
21
213.401200
0
LINE
8
Capa 1
10
128.020900
20
213.401200
11
127.633200
21
213.582400
0
LINE
8
Capa 1
10
127.633200
20
213.582400
11
127.445400
21
213.667500
0
LINE
8
Capa 1
10
127.445400
20
213.667500
11
127.004900
21
213.851300
0
LINE
8
Capa 1
10
127.004900
20
213.851300
11
126.221400
21
214.223000
0
LINE
8
Capa 1
10
126.221400
20
214.223000
11
125.964500
21
214.332200
0
LINE
8
Capa 1
10
125.964500
20
214.332200
11
125.805700
21
214.389200
0
LINE
8
Capa 1
10
125.805700
20
214.389200
11
125.648200
21
214.436700
0
LINE
8
Capa 1
10
125.648200
20
214.436700
11
125.485000
21
214.476900
0
LINE
8
Capa 1
10
125.485000
20
214.476900
11
125.308400
21
214.512300
0
LINE
8
Capa 1
10
125.308400
20
214.512300
11
124.507600
21
214.638700
0
LINE
8
Capa 1
10
124.507600
20
214.638700
11
123.852600
21
214.733700
0
LINE
8
Capa 1
10
123.852600
20
214.733700
11
123.414000
21
214.780900
0
LINE
8
Capa 1
10
123.414000
20
214.780900
11
123.194900
21
214.788900
0
LINE
8
Capa 1
10
123.194900
20
214.788900
11
123.096800
21
214.786700
0
LINE
8
Capa 1
10
123.096800
20
214.786700
11
122.905800
21
214.770900
0
LINE
8
Capa 1
10
122.905800
20
214.770900
11
122.416100
21
214.699200
0
LINE
8
Capa 1
10
122.416100
20
214.699200
11
122.204000
21
214.679300
0
LINE
8
Capa 1
10
122.204000
20
214.679300
11
122.109100
21
214.678300
0
LINE
8
Capa 1
10
122.109100
20
214.678300
11
122.059200
21
214.684800
0
LINE
8
Capa 1
10
122.059200
20
214.684800
11
122.028200
21
214.684300
0
LINE
8
Capa 1
10
122.028200
20
214.684300
11
121.943200
21
214.674300
0
LINE
8
Capa 1
10
121.943200
20
214.674300
11
121.704900
21
214.623500
0
LINE
8
Capa 1
10
121.704900
20
214.623500
11
121.419100
21
214.542700
0
LINE
8
Capa 1
10
121.419100
20
214.542700
11
121.097600
21
214.431100
0
LINE
8
Capa 1
10
121.097600
20
214.431100
11
121.050600
21
214.418100
0
LINE
8
Capa 1
10
121.050600
20
214.418100
11
120.944000
21
214.396200
0
LINE
8
Capa 1
10
120.944000
20
214.396200
11
120.832100
21
214.381600
0
LINE
8
Capa 1
10
120.832100
20
214.381600
11
120.674200
21
214.375100
0
LINE
8
Capa 1
10
120.674200
20
214.375100
11
120.533800
21
214.361400
0
LINE
8
Capa 1
10
120.533800
20
214.361400
11
120.281100
21
214.320500
0
LINE
8
Capa 1
10
120.281100
20
214.320500
11
120.113900
21
214.284100
0
LINE
8
Capa 1
10
120.113900
20
214.284100
11
119.812800
21
214.212300
0
LINE
8
Capa 1
10
119.812800
20
214.212300
11
119.607800
21
214.172300
0
LINE
8
Capa 1
10
119.607800
20
214.172300
11
119.510200
21
214.162900
0
LINE
8
Capa 1
10
119.510200
20
214.162900
11
119.433900
21
214.166800
0
LINE
8
Capa 1
10
119.433900
20
214.166800
11
119.370000
21
214.183900
0
LINE
8
Capa 1
10
119.370000
20
214.183900
11
119.310100
21
214.213900
0
LINE
8
Capa 1
10
119.310100
20
214.213900
11
119.193500
21
214.293600
0
LINE
8
Capa 1
10
119.193500
20
214.293600
11
119.122100
21
214.353500
0
LINE
8
Capa 1
10
119.122100
20
214.353500
11
119.099000
21
214.381900
0
LINE
8
Capa 1
10
119.099000
20
214.381900
11
119.081600
21
214.413000
0
LINE
8
Capa 1
10
119.081600
20
214.413000
11
119.068100
21
214.449600
0
LINE
8
Capa 1
10
119.068100
20
214.449600
11
119.034200
21
214.608100
0
LINE
8
Capa 1
10
119.034200
20
214.608100
11
119.015000
21
214.745200
0
LINE
8
Capa 1
10
119.015000
20
214.745200
11
119.017000
21
214.814900
0
LINE
8
Capa 1
10
119.017000
20
214.814900
11
119.035500
21
214.874800
0
LINE
8
Capa 1
10
119.035500
20
214.874800
11
119.051800
21
214.903100
0
LINE
8
Capa 1
10
119.051800
20
214.903100
11
119.100200
21
214.960800
0
LINE
8
Capa 1
10
119.100200
20
214.960800
11
119.172600
21
215.025300
0
LINE
8
Capa 1
10
119.172600
20
215.025300
11
119.644400
21
215.383900
0
LINE
8
Capa 1
10
119.644400
20
215.383900
11
120.660100
21
215.526500
0
LINE
8
Capa 1
10
120.660100
20
215.526500
11
121.204000
21
215.614500
0
LINE
8
Capa 1
10
121.204000
20
215.614500
11
122.228000
21
215.821900
0
LINE
8
Capa 1
10
122.228000
20
215.821900
11
122.509700
21
215.894000
0
LINE
8
Capa 1
10
122.509700
20
215.894000
11
122.609000
21
215.913500
0
LINE
8
Capa 1
10
122.609000
20
215.913500
11
122.714100
21
215.929400
0
LINE
8
Capa 1
10
122.714100
20
215.929400
11
122.915200
21
215.952000
0
LINE
8
Capa 1
10
122.915200
20
215.952000
11
123.192600
21
216.005800
0
LINE
8
Capa 1
10
123.192600
20
216.005800
11
123.358400
21
216.045300
0
LINE
8
Capa 1
10
123.358400
20
216.045300
11
123.722000
21
216.143600
0
LINE
8
Capa 1
10
123.722000
20
216.143600
11
124.098300
21
216.260700
0
LINE
8
Capa 1
10
124.098300
20
216.260700
11
124.335500
21
216.332000
0
LINE
8
Capa 1
10
124.335500
20
216.332000
11
124.448700
21
216.359300
0
LINE
8
Capa 1
10
124.448700
20
216.359300
11
124.564200
21
216.382100
0
LINE
8
Capa 1
10
124.564200
20
216.382100
11
124.685900
21
216.401000
0
LINE
8
Capa 1
10
124.685900
20
216.401000
11
124.965600
21
216.430400
0
LINE
8
Capa 1
10
124.965600
20
216.430400
11
125.675300
21
216.481000
0
LINE
8
Capa 1
10
125.675300
20
216.481000
11
126.029000
21
216.518100
0
LINE
8
Capa 1
10
126.029000
20
216.518100
11
126.259100
21
216.554700
0
LINE
8
Capa 1
10
126.259100
20
216.554700
11
126.374500
21
216.569600
0
LINE
8
Capa 1
10
126.374500
20
216.569600
11
126.983900
21
216.618800
0
LINE
8
Capa 1
10
126.983900
20
216.618800
11
127.668200
21
216.650200
0
LINE
8
Capa 1
10
127.668200
20
216.650200
11
127.815100
21
216.650400
0
LINE
8
Capa 1
10
127.815100
20
216.650400
11
127.871200
21
216.644900
0
LINE
8
Capa 1
10
127.871200
20
216.644900
11
127.919800
21
216.634500
0
LINE
8
Capa 1
10
127.919800
20
216.634500
11
127.964400
21
216.618200
0
LINE
8
Capa 1
10
127.964400
20
216.618200
11
128.008000
21
216.595000
0
LINE
8
Capa 1
10
128.008000
20
216.595000
11
128.053900
21
216.564200
0
LINE
8
Capa 1
10
128.053900
20
216.564200
11
128.184400
21
216.465900
0
LINE
8
Capa 1
10
128.184400
20
216.465900
11
128.275500
21
216.405100
0
LINE
8
Capa 1
10
128.275500
20
216.405100
11
128.367400
21
216.349400
0
LINE
8
Capa 1
10
128.367400
20
216.349400
11
128.520300
21
216.270100
0
LINE
8
Capa 1
10
128.520300
20
216.270100
11
128.637700
21
216.202600
0
LINE
8
Capa 1
10
128.637700
20
216.202600
11
128.706600
21
216.145300
0
LINE
8
Capa 1
10
128.706600
20
216.145300
11
128.864000
21
216.019900
0
LINE
8
Capa 1
10
128.864000
20
216.019900
11
129.139900
21
215.823400
0
LINE
8
Capa 1
10
129.139900
20
215.823400
11
129.433400
21
215.633000
0
LINE
8
Capa 1
10
129.433400
20
215.633000
11
129.567000
21
215.553500
0
LINE
8
Capa 1
10
129.567000
20
215.553500
11
129.933900
21
215.359800
0
LINE
8
Capa 1
10
129.933900
20
215.359800
11
130.191700
21
215.213400
0
LINE
8
Capa 1
10
130.191700
20
215.213400
11
130.334300
21
215.127700
0
LINE
8
Capa 1
10
130.334300
20
215.127700
11
131.534700
21
214.356200
0
LINE
8
Capa 1
10
131.534700
20
214.356200
11
132.494800
21
213.683200
0
LINE
8
Capa 1
10
132.494800
20
213.683200
11
133.072600
21
213.283700
0
LINE
8
Capa 1
10
133.072600
20
213.283700
11
133.730200
21
212.780200
0
LINE
8
Capa 1
10
133.730200
20
212.780200
11
133.985700
21
212.592100
0
LINE
8
Capa 1
10
133.985700
20
212.592100
11
134.766200
21
211.995300
0
LINE
8
Capa 1
10
134.766200
20
211.995300
11
135.822500
21
211.111900
0
LINE
8
Capa 1
10
135.822500
20
211.111900
11
135.956700
21
210.994700
0
LINE
8
Capa 1
10
135.956700
20
210.994700
11
136.324100
21
210.647900
0
LINE
8
Capa 1
10
136.324100
20
210.647900
11
136.838800
21
210.142100
0
LINE
8
Capa 1
10
136.838800
20
210.142100
11
136.994300
21
210.006000
0
LINE
8
Capa 1
10
136.994300
20
210.006000
11
137.081100
21
209.952000
0
LINE
8
Capa 1
10
137.081100
20
209.952000
11
137.133400
21
209.900700
0
LINE
8
Capa 1
10
137.133400
20
209.900700
11
137.153200
21
209.873100
0
LINE
8
Capa 1
10
137.153200
20
209.873100
11
137.167600
21
209.845600
0
LINE
8
Capa 1
10
137.167600
20
209.845600
11
137.175600
21
209.819300
0
LINE
8
Capa 1
10
137.175600
20
209.819300
11
137.176600
21
209.771500
0
LINE
8
Capa 1
10
137.176600
20
209.771500
11
137.187800
21
209.738100
0
LINE
8
Capa 1
10
137.187800
20
209.738100
11
137.265100
21
209.608700
0
LINE
8
Capa 1
10
137.265100
20
209.608700
11
138.024100
21
208.554200
0
LINE
8
Capa 1
10
138.024100
20
208.554200
11
138.344300
21
208.143600
0
LINE
8
Capa 1
10
138.344300
20
208.143600
11
138.469600
21
207.994400
0
LINE
8
Capa 1
10
138.469600
20
207.994400
11
138.601700
21
207.843500
0
LINE
8
Capa 1
10
138.601700
20
207.843500
11
138.937800
21
207.482000
0
LINE
8
Capa 1
10
138.937800
20
207.482000
11
138.963700
21
207.463000
0
LINE
8
Capa 1
10
138.963700
20
207.463000
11
138.984300
21
207.454000
0
LINE
8
Capa 1
10
138.984300
20
207.454000
11
138.996500
21
207.456600
0
LINE
8
Capa 1
10
138.996500
20
207.456600
11
139.041300
21
207.518600
0
LINE
8
Capa 1
10
139.041300
20
207.518600
11
139.044300
21
207.530900
0
LINE
8
Capa 1
10
139.044300
20
207.530900
11
139.035300
21
207.577000
0
LINE
8
Capa 1
10
139.035300
20
207.577000
11
138.991300
21
207.684000
0
LINE
8
Capa 1
10
138.991300
20
207.684000
11
138.889300
21
207.877600
0
LINE
8
Capa 1
10
138.889300
20
207.877600
11
138.849100
21
207.983400
0
LINE
8
Capa 1
10
138.849100
20
207.983400
11
138.823700
21
208.091800
0
LINE
8
Capa 1
10
138.823700
20
208.091800
11
138.803400
21
208.309600
0
LINE
8
Capa 1
10
138.803400
20
208.309600
11
138.782700
21
208.469500
0
LINE
8
Capa 1
10
138.782700
20
208.469500
11
138.454100
21
210.080700
0
LINE
8
Capa 1
10
138.454100
20
210.080700
11
138.381500
21
210.398900
0
LINE
8
Capa 1
10
138.381500
20
210.398900
11
138.300700
21
210.668800
0
LINE
8
Capa 1
10
138.300700
20
210.668800
11
138.282800
21
210.794400
0
LINE
8
Capa 1
10
138.282800
20
210.794400
11
138.043400
21
211.622000
0
LINE
8
Capa 1
10
138.043400
20
211.622000
11
137.939000
21
212.115400
0
LINE
8
Capa 1
10
137.939000
20
212.115400
11
137.807000
21
212.895100
0
LINE
8
Capa 1
10
137.807000
20
212.895100
11
137.733300
21
213.428400
0
LINE
8
Capa 1
10
137.733300
20
213.428400
11
137.716200
21
213.645100
0
LINE
8
Capa 1
10
137.716200
20
213.645100
11
137.706200
21
213.724200
0
LINE
8
Capa 1
10
137.706200
20
213.724200
11
137.697200
21
213.752300
0
LINE
8
Capa 1
10
137.697200
20
213.752300
11
137.583400
21
214.682600
0
LINE
8
Capa 1
10
137.583400
20
214.682600
11
137.520400
21
215.162300
0
LINE
8
Capa 1
10
137.520400
20
215.162300
11
137.499300
21
215.360700
0
LINE
8
Capa 1
10
137.499300
20
215.360700
11
137.423900
21
216.495000
0
LINE
8
Capa 1
10
137.423900
20
216.495000
11
137.384200
21
217.277900
0
LINE
8
Capa 1
10
137.384200
20
217.277900
11
137.366000
21
217.410600
0
LINE
8
Capa 1
10
137.366000
20
217.410600
11
137.353500
21
217.458100
0
LINE
8
Capa 1
10
137.353500
20
217.458100
11
137.338200
21
217.495600
0
LINE
8
Capa 1
10
137.338200
20
217.495600
11
137.319600
21
217.525200
0
LINE
8
Capa 1
10
137.319600
20
217.525200
11
137.261800
21
217.585900
0
LINE
8
Capa 1
10
137.261800
20
217.585900
11
137.239000
21
217.625300
0
LINE
8
Capa 1
10
137.239000
20
217.625300
11
137.228900
21
217.667200
0
LINE
8
Capa 1
10
137.228900
20
217.667200
11
137.231900
21
217.711900
0
LINE
8
Capa 1
10
137.231900
20
217.711900
11
137.247600
21
217.759900
0
LINE
8
Capa 1
10
137.247600
20
217.759900
11
137.276400
21
217.811700
0
LINE
8
Capa 1
10
137.276400
20
217.811700
11
137.318200
21
217.867500
0
LINE
8
Capa 1
10
137.318200
20
217.867500
11
137.443900
21
218.007200
0
LINE
8
Capa 1
10
137.443900
20
218.007200
11
137.641800
21
218.257900
0
LINE
8
Capa 1
10
137.641800
20
218.257900
11
137.744500
21
218.398400
0
LINE
8
Capa 1
10
137.744500
20
218.398400
11
137.892400
21
218.616000
0
LINE
8
Capa 1
10
137.892400
20
218.616000
11
138.042900
21
218.864600
0
LINE
8
Capa 1
10
138.042900
20
218.864600
11
138.626800
21
219.947300
0
LINE
8
Capa 1
10
138.626800
20
219.947300
11
139.348900
21
221.211500
0
LINE
8
Capa 1
10
139.348900
20
221.211500
11
139.521600
21
221.498400
0
LINE
8
Capa 1
10
139.521600
20
221.498400
11
139.732100
21
221.823400
0
LINE
8
Capa 1
10
139.732100
20
221.823400
11
140.375800
21
222.752700
0
LINE
8
Capa 1
10
140.375800
20
222.752700
11
140.606500
21
223.098200
0
LINE
8
Capa 1
10
140.606500
20
223.098200
11
140.935200
21
223.634200
0
LINE
8
Capa 1
10
140.935200
20
223.634200
11
141.045700
21
223.806900
0
LINE
8
Capa 1
10
141.045700
20
223.806900
11
141.160600
21
223.977400
0
LINE
8
Capa 1
10
141.160600
20
223.977400
11
141.276600
21
224.141300
0
LINE
8
Capa 1
10
141.276600
20
224.141300
11
141.390300
21
224.294200
0
LINE
8
Capa 1
10
141.390300
20
224.294200
11
141.549900
21
224.492900
0
LINE
8
Capa 1
10
141.549900
20
224.492900
11
141.686300
21
224.641300
0
LINE
8
Capa 1
10
141.686300
20
224.641300
11
141.770900
21
224.711600
0
LINE
8
Capa 1
10
141.770900
20
224.711600
11
141.866700
21
224.770600
0
LINE
8
Capa 1
10
141.866700
20
224.770600
11
141.969000
21
224.817100
0
LINE
8
Capa 1
10
141.969000
20
224.817100
11
142.073100
21
224.850000
0
LINE
8
Capa 1
10
142.073100
20
224.850000
11
142.174100
21
224.868000
0
LINE
8
Capa 1
10
142.174100
20
224.868000
11
142.267100
21
224.870000
0
LINE
8
Capa 1
10
142.267100
20
224.870000
11
142.309100
21
224.864600
0
LINE
8
Capa 1
10
142.309100
20
224.864600
11
142.347400
21
224.854800
0
LINE
8
Capa 1
10
142.347400
20
224.854800
11
142.381300
21
224.840300
0
LINE
8
Capa 1
10
142.381300
20
224.840300
11
142.504300
21
224.753200
0
LINE
8
Capa 1
10
142.504300
20
224.753200
11
142.660800
21
224.660400
0
LINE
8
Capa 1
10
142.660800
20
224.660400
11
142.702100
21
224.622200
0
LINE
8
Capa 1
10
142.702100
20
224.622200
11
142.726700
21
224.579800
0
LINE
8
Capa 1
10
142.726700
20
224.579800
11
142.734700
21
224.532800
0
LINE
8
Capa 1
10
142.734700
20
224.532800
11
142.725700
21
224.480200
0
LINE
8
Capa 1
10
142.725700
20
224.480200
11
142.699800
21
224.421700
0
LINE
8
Capa 1
10
142.699800
20
224.421700
11
142.657100
21
224.356300
0
LINE
8
Capa 1
10
142.657100
20
224.356300
11
142.560700
21
224.238300
0
LINE
8
Capa 1
10
142.560700
20
224.238300
11
142.517400
21
224.178700
0
LINE
8
Capa 1
10
142.517400
20
224.178700
11
142.417800
21
224.026400
0
LINE
8
Capa 1
10
142.417800
20
224.026400
11
142.311200
21
223.847300
0
LINE
8
Capa 1
10
142.311200
20
223.847300
11
142.160400
21
223.565800
0
LINE
8
Capa 1
10
142.160400
20
223.565800
11
141.925700
21
223.140400
0
LINE
8
Capa 1
10
141.925700
20
223.140400
11
141.586000
21
222.574100
0
LINE
8
Capa 1
10
141.586000
20
222.574100
11
141.075700
21
221.708400
0
LINE
8
Capa 1
10
141.075700
20
221.708400
11
140.833600
21
221.309900
0
LINE
8
Capa 1
10
140.833600
20
221.309900
11
140.577900
21
220.927600
0
LINE
8
Capa 1
10
140.577900
20
220.927600
11
140.394900
21
220.645100
0
LINE
8
Capa 1
10
140.394900
20
220.645100
11
140.231700
21
220.381600
0
LINE
8
Capa 1
10
140.231700
20
220.381600
11
139.978800
21
219.938000
0
LINE
8
Capa 1
10
139.978800
20
219.938000
11
139.717400
21
219.486400
0
LINE
8
Capa 1
10
139.717400
20
219.486400
11
139.591500
21
219.243700
0
LINE
8
Capa 1
10
139.591500
20
219.243700
11
139.472800
21
218.993800
0
LINE
8
Capa 1
10
139.472800
20
218.993800
11
139.365500
21
218.747100
0
LINE
8
Capa 1
10
139.365500
20
218.747100
11
139.273800
21
218.514200
0
LINE
8
Capa 1
10
139.273800
20
218.514200
11
139.202300
21
218.305400
0
LINE
8
Capa 1
10
139.202300
20
218.305400
11
139.155200
21
218.131300
0
LINE
8
Capa 1
10
139.155200
20
218.131300
11
139.142200
21
218.060500
0
LINE
8
Capa 1
10
139.142200
20
218.060500
11
139.137200
21
218.002300
0
LINE
8
Capa 1
10
139.137200
20
218.002300
11
139.272800
21
217.097600
0
LINE
8
Capa 1
10
139.272800
20
217.097600
11
139.356400
21
216.619200
0
LINE
8
Capa 1
10
139.356400
20
216.619200
11
139.491100
21
215.719300
0
LINE
8
Capa 1
10
139.491100
20
215.719300
11
139.616400
21
214.978300
0
LINE
8
Capa 1
10
139.616400
20
214.978300
11
139.727400
21
214.389800
0
LINE
8
Capa 1
10
139.727400
20
214.389800
11
139.876200
21
213.676300
0
LINE
8
Capa 1
10
139.876200
20
213.676300
11
139.973200
21
213.273000
0
LINE
8
Capa 1
10
139.973200
20
213.273000
11
140.114500
21
212.765800
0
LINE
8
Capa 1
10
140.114500
20
212.765800
11
140.386300
21
211.856800
0
LINE
8
Capa 1
10
140.386300
20
211.856800
11
140.586900
21
211.237100
0
LINE
8
Capa 1
10
140.586900
20
211.237100
11
140.648000
21
211.078600
0
LINE
8
Capa 1
10
140.648000
20
211.078600
11
140.658000
21
211.066200
0
LINE
8
Capa 1
10
140.658000
20
211.066200
11
140.670700
21
211.620000
0
LINE
8
Capa 1
10
140.670700
20
211.620000
11
140.695500
21
212.042100
0
LINE
8
Capa 1
10
140.695500
20
212.042100
11
140.786700
21
213.878800
0
LINE
8
Capa 1
10
140.786700
20
213.878800
11
140.784700
21
214.112000
0
LINE
8
Capa 1
10
140.784700
20
214.112000
11
140.775700
21
214.212500
0
LINE
8
Capa 1
10
140.775700
20
214.212500
11
140.756600
21
214.275500
0
LINE
8
Capa 1
10
140.756600
20
214.275500
11
140.750600
21
214.308200
0
LINE
8
Capa 1
10
140.750600
20
214.308200
11
140.751600
21
214.334000
0
LINE
8
Capa 1
10
140.751600
20
214.334000
11
140.773700
21
214.376600
0
LINE
8
Capa 1
10
140.773700
20
214.376600
11
140.806900
21
214.514100
0
LINE
8
Capa 1
10
140.806900
20
214.514100
11
140.833700
21
214.683400
0
LINE
8
Capa 1
10
140.833700
20
214.683400
11
140.847300
21
214.746400
0
LINE
8
Capa 1
10
140.847300
20
214.746400
11
140.865900
21
214.802000
0
LINE
8
Capa 1
10
140.865900
20
214.802000
11
140.893000
21
214.855700
0
LINE
8
Capa 1
10
140.893000
20
214.855700
11
140.931500
21
214.912900
0
LINE
8
Capa 1
10
140.931500
20
214.912900
11
140.984800
21
214.979100
0
LINE
8
Capa 1
10
140.984800
20
214.979100
11
141.268600
21
215.294300
0
LINE
8
Capa 1
10
141.268600
20
215.294300
11
141.379100
21
215.424900
0
LINE
8
Capa 1
10
141.379100
20
215.424900
11
141.499800
21
215.582200
0
LINE
8
Capa 1
10
141.499800
20
215.582200
11
141.673000
21
215.860700
0
LINE
8
Capa 1
10
141.673000
20
215.860700
11
141.865200
21
216.139600
0
LINE
8
Capa 1
10
141.865200
20
216.139600
11
142.010500
21
216.337500
0
LINE
8
Capa 1
10
142.010500
20
216.337500
11
142.165500
21
216.539800
0
LINE
8
Capa 1
10
142.165500
20
216.539800
11
142.327000
21
216.741900
0
LINE
8
Capa 1
10
142.327000
20
216.741900
11
142.491600
21
216.939300
0
LINE
8
Capa 1
10
142.491600
20
216.939300
11
143.497100
21
218.085000
0
LINE
8
Capa 1
10
143.497100
20
218.085000
11
143.937600
21
218.581100
0
LINE
8
Capa 1
10
143.937600
20
218.581100
11
144.254900
21
218.921600
0
LINE
8
Capa 1
10
144.254900
20
218.921600
11
144.590900
21
219.261400
0
LINE
8
Capa 1
10
144.590900
20
219.261400
11
145.383600
21
220.024900
0
LINE
8
Capa 1
10
145.383600
20
220.024900
11
145.848400
21
220.477500
0
LINE
8
Capa 1
10
145.848400
20
220.477500
11
146.474800
21
221.113700
0
LINE
8
Capa 1
10
146.474800
20
221.113700
11
146.723000
21
221.354800
0
LINE
8
Capa 1
10
146.723000
20
221.354800
11
146.980400
21
221.593400
0
LINE
8
Capa 1
10
146.980400
20
221.593400
11
147.244700
21
221.827200
0
LINE
8
Capa 1
10
147.244700
20
221.827200
11
147.513500
21
222.054300
0
LINE
8
Capa 1
10
147.513500
20
222.054300
11
147.784400
21
222.272600
0
LINE
8
Capa 1
10
147.784400
20
222.272600
11
148.055200
21
222.480100
0
LINE
8
Capa 1
10
148.055200
20
222.480100
11
148.323300
21
222.674600
0
LINE
8
Capa 1
10
148.323300
20
222.674600
11
148.449600
21
222.762500
0
LINE
8
Capa 1
10
148.449600
20
222.762500
11
148.810000
21
223.000900
0
LINE
8
Capa 1
10
148.810000
20
223.000900
11
149.133500
21
223.196300
0
LINE
8
Capa 1
10
149.133500
20
223.196300
11
149.322600
21
223.299400
0
LINE
8
Capa 1
10
149.322600
20
223.299400
11
149.486100
21
223.378300
0
LINE
8
Capa 1
10
149.486100
20
223.378300
11
149.620500
21
223.431100
0
LINE
8
Capa 1
10
149.620500
20
223.431100
11
149.675500
21
223.447200
0
LINE
8
Capa 1
10
149.675500
20
223.447200
11
149.722000
21
223.455900
0
LINE
8
Capa 1
10
149.722000
20
223.455900
11
149.817300
21
223.459200
0
LINE
8
Capa 1
10
149.817300
20
223.459200
11
150.017600
21
223.488500
0
LINE
8
Capa 1
10
150.017600
20
223.488500
11
151.277200
21
223.756600
0
LINE
8
Capa 1
10
151.277200
20
223.756600
11
151.830700
21
223.891600
0
LINE
8
Capa 1
10
151.830700
20
223.891600
11
151.985500
21
223.926700
0
LINE
8
Capa 1
10
151.985500
20
223.926700
11
152.903200
21
224.107200
0
LINE
8
Capa 1
10
152.903200
20
224.107200
11
153.729900
21
224.247300
0
LINE
8
Capa 1
10
153.729900
20
224.247300
11
153.925100
21
224.265500
0
LINE
8
Capa 1
10
153.925100
20
224.265500
11
155.544100
21
224.486700
0
LINE
8
Capa 1
10
155.544100
20
224.486700
11
155.887700
21
224.522500
0
LINE
8
Capa 1
10
155.887700
20
224.522500
11
156.202700
21
224.558800
0
LINE
8
Capa 1
10
156.202700
20
224.558800
11
156.639000
21
224.623200
0
LINE
8
Capa 1
10
156.639000
20
224.623200
11
157.018100
21
224.691400
0
LINE
8
Capa 1
10
157.018100
20
224.691400
11
157.063400
21
224.693900
0
LINE
8
Capa 1
10
157.063400
20
224.693900
11
157.099400
21
224.688400
0
LINE
8
Capa 1
10
157.099400
20
224.688400
11
157.130200
21
224.673500
0
LINE
8
Capa 1
10
157.130200
20
224.673500
11
157.159700
21
224.648000
0
LINE
8
Capa 1
10
157.159700
20
224.648000
11
157.231000
21
224.560700
0
LINE
8
Capa 1
10
157.231000
20
224.560700
11
157.290400
21
224.475500
0
LINE
8
Capa 1
10
157.290400
20
224.475500
11
157.309400
21
224.439000
0
LINE
8
Capa 1
10
157.309400
20
224.439000
11
157.321900
21
224.403900
0
LINE
8
Capa 1
10
157.321900
20
224.403900
11
157.328900
21
224.367800
0
LINE
8
Capa 1
10
157.328900
20
224.367800
11
157.329900
21
224.328700
0
LINE
8
Capa 1
10
157.329900
20
224.328700
11
157.326900
21
224.284600
0
LINE
8
Capa 1
10
157.326900
20
224.284600
11
157.305700
21
224.163100
0
LINE
8
Capa 1
10
157.305700
20
224.163100
11
157.288300
21
224.106100
0
LINE
8
Capa 1
10
157.288300
20
224.106100
11
157.266300
21
224.061100
0
LINE
8
Capa 1
10
157.266300
20
224.061100
11
157.238600
21
224.026900
0
LINE
8
Capa 1
10
157.238600
20
224.026900
11
157.204000
21
224.002500
0
LINE
8
Capa 1
10
157.204000
20
224.002500
11
157.161300
21
223.986800
0
LINE
8
Capa 1
10
157.161300
20
223.986800
11
157.109500
21
223.978700
0
LINE
8
Capa 1
10
157.109500
20
223.978700
11
157.002900
21
223.976400
0
LINE
8
Capa 1
10
157.002900
20
223.976400
11
156.952900
21
223.972300
0
LINE
8
Capa 1
10
156.952900
20
223.972300
11
156.837600
21
223.954600
0
LINE
8
Capa 1
10
156.837600
20
223.954600
11
156.630400
21
223.905600
0
LINE
8
Capa 1
10
156.630400
20
223.905600
11
156.388700
21
223.831500
0
LINE
8
Capa 1
10
156.388700
20
223.831500
11
156.212200
21
223.769300
0
LINE
8
Capa 1
10
156.212200
20
223.769300
11
156.025900
21
223.697600
0
LINE
8
Capa 1
10
156.025900
20
223.697600
11
155.456300
21
223.457100
0
LINE
8
Capa 1
10
155.456300
20
223.457100
11
155.036800
21
223.287400
0
LINE
8
Capa 1
10
155.036800
20
223.287400
11
154.716500
21
223.172700
0
LINE
8
Capa 1
10
154.716500
20
223.172700
11
153.884100
21
222.947900
0
LINE
8
Capa 1
10
153.884100
20
222.947900
11
153.237900
21
222.789500
0
LINE
8
Capa 1
10
153.237900
20
222.789500
11
153.144800
21
222.772900
0
LINE
8
Capa 1
10
153.144800
20
222.772900
11
152.818800
21
222.684700
0
LINE
8
Capa 1
10
152.818800
20
222.684700
11
152.681000
21
222.653400
0
LINE
8
Capa 1
10
152.681000
20
222.653400
11
152.620900
21
222.649600
0
LINE
8
Capa 1
10
152.620900
20
222.649600
11
152.570400
21
222.635100
0
LINE
8
Capa 1
10
152.570400
20
222.635100
11
152.540600
21
222.618600
0
LINE
8
Capa 1
10
152.540600
20
222.618600
11
152.284200
21
222.556700
0
LINE
8
Capa 1
10
152.284200
20
222.556700
11
151.386200
21
222.386700
0
LINE
8
Capa 1
10
151.386200
20
222.386700
11
150.913500
21
222.306900
0
LINE
8
Capa 1
10
150.913500
20
222.306900
11
150.265800
21
222.213300
0
LINE
8
Capa 1
10
150.265800
20
222.213300
11
150.173900
21
222.189100
0
LINE
8
Capa 1
10
150.173900
20
222.189100
11
150.136800
21
222.169900
0
LINE
8
Capa 1
10
150.136800
20
222.169900
11
150.114700
21
222.146400
0
LINE
8
Capa 1
10
150.114700
20
222.146400
11
150.103500
21
222.117200
0
LINE
8
Capa 1
10
150.103500
20
222.117200
11
150.094500
21
222.061300
0
LINE
8
Capa 1
10
150.094500
20
222.061300
11
150.081400
21
222.036200
0
LINE
8
Capa 1
10
150.081400
20
222.036200
11
150.032700
21
221.971500
0
LINE
8
Capa 1
10
150.032700
20
221.971500
11
149.957400
21
221.891400
0
LINE
8
Capa 1
10
149.957400
20
221.891400
11
149.091500
21
221.078800
0
LINE
8
Capa 1
10
149.091500
20
221.078800
11
148.614300
21
220.650500
0
LINE
8
Capa 1
10
148.614300
20
220.650500
11
148.149900
21
220.251700
0
LINE
8
Capa 1
10
148.149900
20
220.251700
11
147.764800
21
219.908000
0
LINE
8
Capa 1
10
147.764800
20
219.908000
11
146.860500
21
218.993800
0
LINE
8
Capa 1
10
146.860500
20
218.993800
11
146.660400
21
218.784700
0
LINE
8
Capa 1
10
146.660400
20
218.784700
11
146.473100
21
218.579300
0
LINE
8
Capa 1
10
146.473100
20
218.579300
11
145.741100
21
217.806300
0
LINE
8
Capa 1
10
145.741100
20
217.806300
11
145.425000
21
217.453300
0
LINE
8
Capa 1
10
145.425000
20
217.453300
11
145.257700
21
217.257000
0
LINE
8
Capa 1
10
145.257700
20
217.257000
11
144.617000
21
216.466800
0
LINE
8
Capa 1
10
144.617000
20
216.466800
11
144.018100
21
215.730500
0
LINE
8
Capa 1
10
144.018100
20
215.730500
11
143.608900
21
215.218100
0
LINE
8
Capa 1
10
143.608900
20
215.218100
11
143.395800
21
214.929800
0
LINE
8
Capa 1
10
143.395800
20
214.929800
11
143.285400
21
214.764600
0
LINE
8
Capa 1
10
143.285400
20
214.764600
11
143.192000
21
214.609500
0
LINE
8
Capa 1
10
143.192000
20
214.609500
11
143.108700
21
214.454400
0
LINE
8
Capa 1
10
143.108700
20
214.454400
11
143.001600
21
214.227500
0
LINE
8
Capa 1
10
143.001600
20
214.227500
11
142.949200
21
214.086800
0
LINE
8
Capa 1
10
142.949200
20
214.086800
11
142.877700
21
213.845600
0
LINE
8
Capa 1
10
142.877700
20
213.845600
11
142.836900
21
213.674500
0
LINE
8
Capa 1
10
142.836900
20
213.674500
11
142.803300
21
213.503300
0
LINE
8
Capa 1
10
142.803300
20
213.503300
11
142.769600
21
213.260600
0
LINE
8
Capa 1
10
142.769600
20
213.260600
11
142.760600
21
213.118300
0
LINE
8
Capa 1
10
142.760600
20
213.118300
11
142.776100
21
212.365300
0
LINE
8
Capa 1
10
142.776100
20
212.365300
11
142.777100
21
212.027300
0
LINE
8
Capa 1
10
142.777100
20
212.027300
11
142.771100
21
211.921700
0
LINE
8
Capa 1
10
142.771100
20
211.921700
11
142.773100
21
211.897500
0
LINE
8
Capa 1
10
142.773100
20
211.897500
11
142.780100
21
211.882700
0
LINE
8
Capa 1
10
142.780100
20
211.882700
11
142.790100
21
211.877200
0
LINE
8
Capa 1
10
142.790100
20
211.877200
11
142.802700
21
211.881200
0
LINE
8
Capa 1
10
142.802700
20
211.881200
11
142.817100
21
211.894800
0
LINE
8
Capa 1
10
142.817100
20
211.894800
11
142.832700
21
211.917900
0
LINE
8
Capa 1
10
142.832700
20
211.917900
11
142.898900
21
212.056300
0
LINE
8
Capa 1
10
142.898900
20
212.056300
11
143.042600
21
212.314000
0
LINE
8
Capa 1
10
143.042600
20
212.314000
11
143.128000
21
212.452900
0
LINE
8
Capa 1
10
143.128000
20
212.452900
11
143.217100
21
212.590000
0
LINE
8
Capa 1
10
143.217100
20
212.590000
11
143.305600
21
212.718700
0
LINE
8
Capa 1
10
143.305600
20
212.718700
11
143.389600
21
212.832500
0
LINE
8
Capa 1
10
143.389600
20
212.832500
11
144.003800
21
213.580200
0
LINE
8
Capa 1
10
144.003800
20
213.580200
11
144.278800
21
213.904100
0
LINE
8
Capa 1
10
144.278800
20
213.904100
11
144.509800
21
214.158000
0
LINE
8
Capa 1
10
144.509800
20
214.158000
11
145.773600
21
215.486400
0
LINE
8
Capa 1
10
145.773600
20
215.486400
11
146.064000
21
215.776700
0
LINE
8
Capa 1
10
146.064000
20
215.776700
11
146.170100
21
215.870800
0
LINE
8
Capa 1
10
146.170100
20
215.870800
11
146.347900
21
216.013200
0
LINE
8
Capa 1
10
146.347900
20
216.013200
11
146.867200
21
216.387600
0
LINE
8
Capa 1
10
146.867200
20
216.387600
11
147.238600
21
216.640000
0
LINE
8
Capa 1
10
147.238600
20
216.640000
11
147.455200
21
216.769300
0
LINE
8
Capa 1
10
147.455200
20
216.769300
11
147.553000
21
216.819300
0
LINE
8
Capa 1
10
147.553000
20
216.819300
11
147.651600
21
216.864400
0
LINE
8
Capa 1
10
147.651600
20
216.864400
11
147.756900
21
216.908000
0
LINE
8
Capa 1
10
147.756900
20
216.908000
11
148.342600
21
217.131900
0
LINE
8
Capa 1
10
148.342600
20
217.131900
11
148.717200
21
217.260500
0
LINE
8
Capa 1
10
148.717200
20
217.260500
11
149.060700
21
217.362900
0
LINE
8
Capa 1
10
149.060700
20
217.362900
11
149.283200
21
217.420000
0
LINE
8
Capa 1
10
149.283200
20
217.420000
11
149.508000
21
217.470300
0
LINE
8
Capa 1
10
149.508000
20
217.470300
11
149.741600
21
217.515800
0
LINE
8
Capa 1
10
149.741600
20
217.515800
11
150.394900
21
217.635500
0
LINE
8
Capa 1
10
150.394900
20
217.635500
11
150.589800
21
217.665900
0
LINE
8
Capa 1
10
150.589800
20
217.665900
11
150.785400
21
217.684700
0
LINE
8
Capa 1
10
150.785400
20
217.684700
11
150.983800
21
217.691800
0
LINE
8
Capa 1
10
150.983800
20
217.691800
11
151.187100
21
217.687000
0
LINE
8
Capa 1
10
151.187100
20
217.687000
11
151.397700
21
217.670300
0
LINE
8
Capa 1
10
151.397700
20
217.670300
11
151.617500
21
217.641500
0
LINE
8
Capa 1
10
151.617500
20
217.641500
11
151.848900
21
217.600600
0
LINE
8
Capa 1
10
151.848900
20
217.600600
11
152.216200
21
217.519300
0
LINE
8
Capa 1
10
152.216200
20
217.519300
11
152.710100
21
217.417300
0
LINE
8
Capa 1
10
152.710100
20
217.417300
11
152.896100
21
217.370700
0
LINE
8
Capa 1
10
152.896100
20
217.370700
11
153.085300
21
217.315700
0
LINE
8
Capa 1
10
153.085300
20
217.315700
11
153.270500
21
217.254800
0
LINE
8
Capa 1
10
153.270500
20
217.254800
11
153.444500
21
217.190500
0
LINE
8
Capa 1
10
153.444500
20
217.190500
11
153.599900
21
217.125500
0
LINE
8
Capa 1
10
153.599900
20
217.125500
11
153.729500
21
217.062200
0
LINE
8
Capa 1
10
153.729500
20
217.062200
11
153.826100
21
217.003200
0
LINE
8
Capa 1
10
153.826100
20
217.003200
11
153.958300
21
216.904700
0
LINE
8
Capa 1
10
153.958300
20
216.904700
11
154.079000
21
216.806800
0
LINE
8
Capa 1
10
154.079000
20
216.806800
11
154.194800
21
216.702600
0
LINE
8
Capa 1
10
154.194800
20
216.702600
11
154.312400
21
216.585100
0
LINE
8
Capa 1
10
154.312400
20
216.585100
11
154.438400
21
216.447500
0
LINE
8
Capa 1
10
154.438400
20
216.447500
11
154.657600
21
216.188100
0
LINE
8
Capa 1
10
154.657600
20
216.188100
11
155.251500
21
215.439800
0
LINE
8
Capa 1
10
155.251500
20
215.439800
11
155.640700
21
214.936600
0
LINE
8
Capa 1
10
155.640700
20
214.936600
11
155.819200
21
214.690600
0
LINE
8
Capa 1
10
155.819200
20
214.690600
11
155.921400
21
214.534200
0
LINE
8
Capa 1
10
155.921400
20
214.534200
11
156.001300
21
214.393500
0
LINE
8
Capa 1
10
156.001300
20
214.393500
11
156.071600
21
214.250400
0
LINE
8
Capa 1
10
156.071600
20
214.250400
11
156.251800
21
213.835200
0
LINE
8
Capa 1
10
156.251800
20
213.835200
11
156.347200
21
213.594800
0
LINE
8
Capa 1
10
156.347200
20
213.594800
11
156.431300
21
213.363100
0
LINE
8
Capa 1
10
156.431300
20
213.363100
11
156.504600
21
213.138300
0
LINE
8
Capa 1
10
156.504600
20
213.138300
11
156.567100
21
212.918600
0
LINE
8
Capa 1
10
156.567100
20
212.918600
11
156.619100
21
212.702200
0
LINE
8
Capa 1
10
156.619100
20
212.702200
11
156.660800
21
212.487400
0
LINE
8
Capa 1
10
156.660800
20
212.487400
11
156.692500
21
212.272300
0
LINE
8
Capa 1
10
156.692500
20
212.272300
11
156.714300
21
212.055100
0
LINE
8
Capa 1
10
156.714300
20
212.055100
11
156.726500
21
211.834200
0
LINE
8
Capa 1
10
156.726500
20
211.834200
11
156.729500
21
211.607600
0
LINE
8
Capa 1
10
156.729500
20
211.607600
11
156.723500
21
211.373600
0
LINE
8
Capa 1
10
156.723500
20
211.373600
11
156.708200
21
211.130400
0
LINE
8
Capa 1
10
156.708200
20
211.130400
11
156.684100
21
210.876100
0
LINE
8
Capa 1
10
156.684100
20
210.876100
11
156.651600
21
210.609100
0
LINE
8
Capa 1
10
156.651600
20
210.609100
11
156.610700
21
210.327600
0
LINE
8
Capa 1
10
156.610700
20
210.327600
11
156.588900
21
210.217100
0
LINE
8
Capa 1
10
156.588900
20
210.217100
11
156.513200
21
209.928200
0
LINE
8
Capa 1
10
156.513200
20
209.928200
11
156.443200
21
209.700000
0
LINE
8
Capa 1
10
156.443200
20
209.700000
11
156.356600
21
209.458500
0
LINE
8
Capa 1
10
156.356600
20
209.458500
11
156.324700
21
209.392000
0
LINE
8
Capa 1
10
156.324700
20
209.392000
11
156.306700
21
209.369500
0
LINE
8
Capa 1
10
156.306700
20
209.369500
11
156.287600
21
209.331000
0
LINE
8
Capa 1
10
156.287600
20
209.331000
11
156.189600
21
209.054200
0
LINE
8
Capa 1
10
156.189600
20
209.054200
11
156.145800
21
208.945900
0
LINE
8
Capa 1
10
156.145800
20
208.945900
11
156.097100
21
208.838800
0
LINE
8
Capa 1
10
156.097100
20
208.838800
11
156.049500
21
208.745800
0
LINE
8
Capa 1
10
156.049500
20
208.745800
11
156.011900
21
208.681800
0
LINE
8
Capa 1
10
156.011900
20
208.681800
11
155.914500
21
208.531500
0
LINE
8
Capa 1
10
155.914500
20
208.531500
11
155.726600
21
208.268300
0
LINE
8
Capa 1
10
155.726600
20
208.268300
11
155.584100
21
208.081600
0
LINE
8
Capa 1
10
155.584100
20
208.081600
11
155.436600
21
207.897000
0
LINE
8
Capa 1
10
155.436600
20
207.897000
11
155.291400
21
207.723800
0
LINE
8
Capa 1
10
155.291400
20
207.723800
11
155.094000
21
207.506300
0
LINE
8
Capa 1
10
155.094000
20
207.506300
11
154.919800
21
207.335300
0
LINE
8
Capa 1
10
154.919800
20
207.335300
11
154.587700
21
206.999900
0
LINE
8
Capa 1
10
154.587700
20
206.999900
11
154.448700
21
206.873500
0
LINE
8
Capa 1
10
154.448700
20
206.873500
11
153.895600
21
206.431700
0
LINE
8
Capa 1
10
153.895600
20
206.431700
11
153.252900
21
205.950400
0
LINE
8
Capa 1
10
153.252900
20
205.950400
11
152.859300
21
205.670700
0
LINE
8
Capa 1
10
152.859300
20
205.670700
11
152.581000
21
205.489900
0
LINE
8
Capa 1
10
152.581000
20
205.489900
11
152.444800
21
205.409000
0
LINE
8
Capa 1
10
152.444800
20
205.409000
11
152.306300
21
205.332000
0
LINE
8
Capa 1
10
152.306300
20
205.332000
11
152.162000
21
205.257200
0
LINE
8
Capa 1
10
152.162000
20
205.257200
11
151.843100
21
205.106800
0
LINE
8
Capa 1
10
151.843100
20
205.106800
11
151.564200
21
204.986500
0
LINE
8
Capa 1
10
151.564200
20
204.986500
11
150.491600
21
204.559700
0
LINE
8
Capa 1
10
150.491600
20
204.559700
11
150.254500
21
204.475400
0
LINE
8
Capa 1
10
150.254500
20
204.475400
11
150.004200
21
204.391900
0
LINE
8
Capa 1
10
150.004200
20
204.391900
11
149.741800
21
204.309600
0
LINE
8
Capa 1
10
149.741800
20
204.309600
11
149.468600
21
204.228700
0
LINE
8
Capa 1
10
149.468600
20
204.228700
11
149.186000
21
204.149900
0
LINE
8
Capa 1
10
149.186000
20
204.149900
11
148.895400
21
204.073200
0
LINE
8
Capa 1
10
148.895400
20
204.073200
11
148.516700
21
203.978900
0
LINE
8
Capa 1
10
148.516700
20
203.978900
11
148.392500
21
203.942400
0
LINE
8
Capa 1
10
148.392500
20
203.942400
11
148.318000
21
203.910700
0
LINE
8
Capa 1
10
148.318000
20
203.910700
11
148.298600
21
203.896300
0
LINE
8
Capa 1
10
148.298600
20
203.896300
11
148.290600
21
203.882900
0
LINE
8
Capa 1
10
148.290600
20
203.882900
11
148.294600
21
203.870300
0
LINE
8
Capa 1
10
148.294600
20
203.870300
11
148.304600
21
203.863100
0
LINE
8
Capa 1
10
148.304600
20
203.863100
11
148.476600
21
203.791200
0
LINE
8
Capa 1
10
148.476600
20
203.791200
11
148.802600
21
203.680500
0
LINE
8
Capa 1
10
148.802600
20
203.680500
11
149.048500
21
203.615700
0
LINE
8
Capa 1
10
149.048500
20
203.615700
11
149.176400
21
203.579800
0
LINE
8
Capa 1
10
149.176400
20
203.579800
11
149.269200
21
203.544500
0
LINE
8
Capa 1
10
149.269200
20
203.544500
11
149.407000
21
203.504300
0
LINE
8
Capa 1
10
149.407000
20
203.504300
11
149.581300
21
203.466000
0
LINE
8
Capa 1
10
149.581300
20
203.466000
11
149.783000
21
203.431100
0
LINE
8
Capa 1
10
149.783000
20
203.431100
11
150.117200
21
203.387500
0
LINE
8
Capa 1
10
150.117200
20
203.387500
11
150.348000
21
203.366200
0
LINE
8
Capa 1
10
150.348000
20
203.366200
11
150.574600
21
203.352500
0
LINE
8
Capa 1
10
150.574600
20
203.352500
11
150.788000
21
203.347600
0
LINE
8
Capa 1
10
150.788000
20
203.347600
11
151.080500
21
203.348300
0
LINE
8
Capa 1
10
151.080500
20
203.348300
11
151.320600
21
203.352500
0
LINE
8
Capa 1
10
151.320600
20
203.352500
11
151.437800
21
203.363900
0
LINE
8
Capa 1
10
151.437800
20
203.363900
11
151.476800
21
203.379000
0
LINE
8
Capa 1
10
151.476800
20
203.379000
11
151.506900
21
203.405800
0
LINE
8
Capa 1
10
151.506900
20
203.405800
11
151.523100
21
203.411200
0
LINE
8
Capa 1
10
151.523100
20
203.411200
11
151.538500
21
203.409000
0
LINE
8
Capa 1
10
151.538500
20
203.409000
11
151.566300
21
203.389800
0
LINE
8
Capa 1
10
151.566300
20
203.389800
11
151.589000
21
203.390100
0
LINE
8
Capa 1
10
151.589000
20
203.390100
11
151.616100
21
203.399000
0
LINE
8
Capa 1
10
151.616100
20
203.399000
11
151.676400
21
203.433100
0
LINE
8
Capa 1
10
151.676400
20
203.433100
11
151.710800
21
203.439100
0
LINE
8
Capa 1
10
151.710800
20
203.439100
11
151.744600
21
203.434200
0
LINE
8
Capa 1
10
151.744600
20
203.434200
11
151.810200
21
203.401300
0
LINE
8
Capa 1
10
151.810200
20
203.401300
11
151.854600
21
203.399200
0
LINE
8
Capa 1
10
151.854600
20
203.399200
11
151.908000
21
203.411900
0
LINE
8
Capa 1
10
151.908000
20
203.411900
11
152.037000
21
203.467600
0
LINE
8
Capa 1
10
152.037000
20
203.467600
11
152.120700
21
203.492000
0
LINE
8
Capa 1
10
152.120700
20
203.492000
11
152.210300
21
203.509900
0
LINE
8
Capa 1
10
152.210300
20
203.509900
11
152.353100
21
203.523900
0
LINE
8
Capa 1
10
152.353100
20
203.523900
11
152.410600
21
203.534200
0
LINE
8
Capa 1
10
152.410600
20
203.534200
11
152.471500
21
203.551300
0
LINE
8
Capa 1
10
152.471500
20
203.551300
11
152.539300
21
203.576600
0
LINE
8
Capa 1
10
152.539300
20
203.576600
11
152.617800
21
203.611900
0
LINE
8
Capa 1
10
152.617800
20
203.611900
11
152.710600
21
203.658700
0
LINE
8
Capa 1
10
152.710600
20
203.658700
11
153.159000
21
203.904300
0
LINE
8
Capa 1
10
153.159000
20
203.904300
11
153.370800
21
204.013200
0
LINE
8
Capa 1
10
153.370800
20
204.013200
11
153.564900
21
204.106900
0
LINE
8
Capa 1
10
153.564900
20
204.106900
11
153.854400
21
204.231100
0
LINE
8
Capa 1
10
153.854400
20
204.231100
11
154.173000
21
204.384100
0
LINE
8
Capa 1
10
154.173000
20
204.384100
11
154.622300
21
204.622500
0
LINE
8
Capa 1
10
154.622300
20
204.622500
11
155.238400
21
204.914800
0
LINE
8
Capa 1
10
155.238400
20
204.914800
11
155.727000
21
205.167400
0
LINE
8
Capa 1
10
155.727000
20
205.167400
11
156.716600
21
205.632100
0
LINE
8
Capa 1
10
156.716600
20
205.632100
11
156.862300
21
205.707900
0
LINE
8
Capa 1
10
156.862300
20
205.707900
11
157.171900
21
205.883700
0
LINE
8
Capa 1
10
157.171900
20
205.883700
11
158.061000
21
206.423000
0
LINE
8
Capa 1
10
158.061000
20
206.423000
11
158.180900
21
206.487100
0
LINE
8
Capa 1
10
158.180900
20
206.487100
11
159.137500
21
207.128500
0
LINE
8
Capa 1
10
159.137500
20
207.128500
11
160.124500
21
207.786900
0
LINE
8
Capa 1
10
160.124500
20
207.786900
11
160.389900
21
207.951400
0
LINE
8
Capa 1
10
160.389900
20
207.951400
11
160.447900
21
207.978000
0
LINE
8
Capa 1
10
160.447900
20
207.978000
11
160.498000
21
208.027100
0
LINE
8
Capa 1
10
160.498000
20
208.027100
11
160.609000
21
208.171800
0
LINE
8
Capa 1
10
160.609000
20
208.171800
11
160.796900
21
208.456600
0
LINE
8
Capa 1
10
160.796900
20
208.456600
11
160.896400
21
208.620600
0
LINE
8
Capa 1
10
160.896400
20
208.620600
11
160.992600
21
208.788900
0
LINE
8
Capa 1
10
160.992600
20
208.788900
11
161.158500
21
209.098400
0
LINE
8
Capa 1
10
161.158500
20
209.098400
11
161.248000
21
209.250500
0
LINE
8
Capa 1
10
161.248000
20
209.250500
11
161.410900
21
209.501800
0
LINE
8
Capa 1
10
161.410900
20
209.501800
11
161.697200
21
209.903200
0
LINE
8
Capa 1
10
161.697200
20
209.903200
11
162.318900
21
210.716600
0
LINE
8
Capa 1
10
162.318900
20
210.716600
11
162.436200
21
210.880700
0
LINE
8
Capa 1
10
162.436200
20
210.880700
11
162.550400
21
211.049800
0
LINE
8
Capa 1
10
162.550400
20
211.049800
11
162.659400
21
211.220100
0
LINE
8
Capa 1
10
162.659400
20
211.220100
11
162.760900
21
211.388400
0
LINE
8
Capa 1
10
162.760900
20
211.388400
11
162.852800
21
211.550900
0
LINE
8
Capa 1
10
162.852800
20
211.550900
11
162.932900
21
211.704000
0
LINE
8
Capa 1
10
162.932900
20
211.704000
11
163.112700
21
212.090100
0
LINE
8
Capa 1
10
163.112700
20
212.090100
11
163.241700
21
212.339800
0
LINE
8
Capa 1
10
163.241700
20
212.339800
11
163.401200
21
212.621400
0
LINE
8
Capa 1
10
163.401200
20
212.621400
11
163.723700
21
213.160700
0
LINE
8
Capa 1
10
163.723700
20
213.160700
11
163.841100
21
213.368400
0
LINE
8
Capa 1
10
163.841100
20
213.368400
11
163.944900
21
213.561400
0
LINE
8
Capa 1
10
163.944900
20
213.561400
11
164.086200
21
213.846400
0
LINE
8
Capa 1
10
164.086200
20
213.846400
11
164.147800
21
213.953500
0
LINE
8
Capa 1
10
164.147800
20
213.953500
11
164.207400
21
214.036900
0
LINE
8
Capa 1
10
164.207400
20
214.036900
11
164.265800
21
214.097500
0
LINE
8
Capa 1
10
164.265800
20
214.097500
11
164.294800
21
214.119600
0
LINE
8
Capa 1
10
164.294800
20
214.119600
11
164.323900
21
214.136200
0
LINE
8
Capa 1
10
164.323900
20
214.136200
11
164.353200
21
214.147700
0
LINE
8
Capa 1
10
164.353200
20
214.147700
11
164.382900
21
214.153900
0
LINE
8
Capa 1
10
164.382900
20
214.153900
11
164.413000
21
214.155100
0
LINE
8
Capa 1
10
164.413000
20
214.155100
11
164.443700
21
214.151300
0
LINE
8
Capa 1
10
164.443700
20
214.151300
11
164.475100
21
214.142800
0
LINE
8
Capa 1
10
164.475100
20
214.142800
11
164.507300
21
214.129400
0
LINE
8
Capa 1
10
164.507300
20
214.129400
11
164.561100
21
214.098000
0
LINE
8
Capa 1
10
164.561100
20
214.098000
11
164.617600
21
214.055700
0
LINE
8
Capa 1
10
164.617600
20
214.055700
11
164.670200
21
214.008100
0
LINE
8
Capa 1
10
164.670200
20
214.008100
11
164.754500
21
213.912800
0
LINE
8
Capa 1
10
164.754500
20
213.912800
11
164.808800
21
213.863900
0
LINE
8
Capa 1
10
164.808800
20
213.863900
11
164.867800
21
213.819700
0
LINE
8
Capa 1
10
164.867800
20
213.819700
11
164.963900
21
213.765800
0
LINE
8
Capa 1
10
164.963900
20
213.765800
11
165.017600
21
213.731000
0
LINE
8
Capa 1
10
165.017600
20
213.731000
11
165.034500
21
213.713400
0
LINE
8
Capa 1
10
165.034500
20
213.713400
11
165.046300
21
213.693800
0
LINE
8
Capa 1
10
165.046300
20
213.693800
11
165.054300
21
213.670700
0
LINE
8
Capa 1
10
165.054300
20
213.670700
11
165.062300
21
213.608400
0
LINE
8
Capa 1
10
165.062300
20
213.608400
11
165.057300
21
213.551900
0
LINE
8
Capa 1
10
165.057300
20
213.551900
11
165.036400
21
213.487500
0
LINE
8
Capa 1
10
165.036400
20
213.487500
11
165.001900
21
213.419800
0
LINE
8
Capa 1
10
165.001900
20
213.419800
11
164.894800
21
213.273600
0
LINE
8
Capa 1
10
164.894800
20
213.273600
11
164.837900
21
213.189000
0
LINE
8
Capa 1
10
164.837900
20
213.189000
11
164.784200
21
213.098700
0
LINE
8
Capa 1
10
164.784200
20
213.098700
11
164.733500
21
213.001800
0
LINE
8
Capa 1
10
164.733500
20
213.001800
11
164.685000
21
212.897100
0
LINE
8
Capa 1
10
164.685000
20
212.897100
11
164.638300
21
212.783700
0
LINE
8
Capa 1
10
164.638300
20
212.783700
11
164.592900
21
212.660500
0
LINE
8
Capa 1
10
164.592900
20
212.660500
11
164.463600
21
212.284500
0
LINE
8
Capa 1
10
164.463600
20
212.284500
11
164.416800
21
212.180400
0
LINE
8
Capa 1
10
164.416800
20
212.180400
11
164.396500
21
212.153500
0
LINE
8
Capa 1
10
164.396500
20
212.153500
11
164.355700
21
212.074700
0
LINE
8
Capa 1
10
164.355700
20
212.074700
11
164.099700
21
211.479000
0
LINE
8
Capa 1
10
164.099700
20
211.479000
11
164.001600
21
211.261800
0
LINE
8
Capa 1
10
164.001600
20
211.261800
11
163.903800
21
211.057700
0
LINE
8
Capa 1
10
163.903800
20
211.057700
11
163.738900
21
210.743300
0
LINE
8
Capa 1
10
163.738900
20
210.743300
11
163.580800
21
210.431400
0
LINE
8
Capa 1
10
163.580800
20
210.431400
11
163.277500
21
209.770400
0
LINE
8
Capa 1
10
163.277500
20
209.770400
11
163.107200
21
209.449300
0
LINE
8
Capa 1
10
163.107200
20
209.449300
11
162.914800
21
209.117800
0
LINE
8
Capa 1
10
162.914800
20
209.117800
11
162.639600
21
208.595800
0
LINE
8
Capa 1
10
162.639600
20
208.595800
11
162.522800
21
208.389000
0
LINE
8
Capa 1
10
162.522800
20
208.389000
11
162.312700
21
208.048300
0
LINE
8
Capa 1
10
162.312700
20
208.048300
11
161.993300
21
207.575400
0
LINE
8
Capa 1
10
161.993300
20
207.575400
11
161.814900
21
207.287800
0
LINE
8
Capa 1
10
161.814900
20
207.287800
11
161.723600
21
207.113700
0
LINE
8
Capa 1
10
161.723600
20
207.113700
11
161.681100
21
207.013900
0
LINE
8
Capa 1
10
161.681100
20
207.013900
11
161.652100
21
206.925000
0
LINE
8
Capa 1
10
161.652100
20
206.925000
11
161.625900
21
206.789500
0
LINE
8
Capa 1
10
161.625900
20
206.789500
11
161.602200
21
206.705300
0
LINE
8
Capa 1
10
161.602200
20
206.705300
11
161.568400
21
206.639600
0
LINE
8
Capa 1
10
161.568400
20
206.639600
11
161.493200
21
206.368000
0
LINE
8
Capa 1
10
161.493200
20
206.368000
11
161.458000
21
206.271600
0
LINE
8
Capa 1
10
161.458000
20
206.271600
11
161.437500
21
206.237800
0
LINE
8
Capa 1
10
161.437500
20
206.237800
11
160.236000
21
205.495600
0
LINE
8
Capa 1
10
160.236000
20
205.495600
11
159.294100
21
204.908700
0
LINE
8
Capa 1
10
159.294100
20
204.908700
11
158.749000
21
204.582300
0
LINE
8
Capa 1
10
158.749000
20
204.582300
11
158.301900
21
204.330000
0
LINE
8
Capa 1
10
158.301900
20
204.330000
11
157.916700
21
204.130700
0
LINE
8
Capa 1
10
157.916700
20
204.130700
11
157.562800
21
203.962300
0
LINE
8
Capa 1
10
157.562800
20
203.962300
11
156.810200
21
203.560200
0
LINE
8
Capa 1
10
156.810200
20
203.560200
11
156.464200
21
203.385800
0
LINE
8
Capa 1
10
156.464200
20
203.385800
11
156.098000
21
203.212000
0
LINE
8
Capa 1
10
156.098000
20
203.212000
11
155.719700
21
203.042700
0
LINE
8
Capa 1
10
155.719700
20
203.042700
11
155.337900
21
202.881500
0
LINE
8
Capa 1
10
155.337900
20
202.881500
11
154.960600
21
202.731800
0
LINE
8
Capa 1
10
154.960600
20
202.731800
11
154.596200
21
202.597400
0
LINE
8
Capa 1
10
154.596200
20
202.597400
11
153.889200
21
202.356600
0
LINE
8
Capa 1
10
153.889200
20
202.356600
11
152.609000
21
201.861100
0
LINE
8
Capa 1
10
152.609000
20
201.861100
11
152.077900
21
201.671200
0
LINE
8
Capa 1
10
152.077900
20
201.671200
11
151.939600
21
201.634300
0
LINE
8
Capa 1
10
151.939600
20
201.634300
11
151.721600
21
201.553800
0
LINE
8
Capa 1
10
151.721600
20
201.553800
11
151.442800
21
201.432600
0
LINE
8
Capa 1
10
151.442800
20
201.432600
11
151.160900
21
201.295800
0
LINE
8
Capa 1
10
151.160900
20
201.295800
11
150.934500
21
201.175200
0
LINE
8
Capa 1
10
150.934500
20
201.175200
11
150.836700
21
201.129400
0
LINE
8
Capa 1
10
150.836700
20
201.129400
11
150.745500
21
201.092400
0
LINE
8
Capa 1
10
150.745500
20
201.092400
11
150.663000
21
201.065000
0
LINE
8
Capa 1
10
150.663000
20
201.065000
11
150.591300
21
201.047700
0
LINE
8
Capa 1
10
150.591300
20
201.047700
11
150.532500
21
201.041100
0
LINE
8
Capa 1
10
150.532500
20
201.041100
11
150.488800
21
201.046000
0
LINE
8
Capa 1
10
150.488800
20
201.046000
11
150.473200
21
201.052800
0
LINE
8
Capa 1
10
150.473200
20
201.052800
11
150.462200
21
201.062700
0
LINE
8
Capa 1
10
150.462200
20
201.062700
11
150.423600
21
201.083600
0
LINE
8
Capa 1
10
150.423600
20
201.083600
11
150.277500
21
201.136000
0
LINE
8
Capa 1
10
150.277500
20
201.136000
11
149.717500
21
201.299900
0
LINE
8
Capa 1
10
149.717500
20
201.299900
11
149.401700
21
201.377600
0
LINE
8
Capa 1
10
149.401700
20
201.377600
11
149.099500
21
201.435300
0
LINE
8
Capa 1
10
149.099500
20
201.435300
11
148.492600
21
201.528000
0
LINE
8
Capa 1
10
148.492600
20
201.528000
11
148.175800
21
201.566800
0
LINE
8
Capa 1
10
148.175800
20
201.566800
11
147.976200
21
201.582000
0
LINE
8
Capa 1
10
147.976200
20
201.582000
11
147.941300
21
201.577900
0
LINE
8
Capa 1
10
147.941300
20
201.577900
11
147.941000
21
201.575000
0
LINE
8
Capa 1
10
147.941000
20
201.575000
11
147.964100
21
201.553600
0
LINE
8
Capa 1
10
147.964100
20
201.553600
11
148.765800
21
201.016200
0
LINE
8
Capa 1
10
148.765800
20
201.016200
11
149.085700
21
200.825300
0
LINE
8
Capa 1
10
149.085700
20
200.825300
11
149.229300
21
200.720300
0
LINE
8
Capa 1
10
149.229300
20
200.720300
11
150.093500
21
200.205100
0
LINE
8
Capa 1
10
150.093500
20
200.205100
11
150.622900
21
199.952300
0
LINE
8
Capa 1
10
150.622900
20
199.952300
11
151.806400
21
199.355600
0
LINE
8
Capa 1
10
151.806400
20
199.355600
11
152.728500
21
198.864400
0
LINE
8
Capa 1
10
152.728500
20
198.864400
11
152.870600
21
198.785100
0
LINE
8
Capa 1
10
152.870600
20
198.785100
11
153.097500
21
198.646700
0
LINE
8
Capa 1
10
153.097500
20
198.646700
11
153.381500
21
198.452400
0
LINE
8
Capa 1
10
153.381500
20
198.452400
11
153.467400
21
198.400800
0
LINE
8
Capa 1
10
153.467400
20
198.400800
11
153.547600
21
198.363600
0
LINE
8
Capa 1
10
153.547600
20
198.363600
11
153.625800
21
198.339900
0
LINE
8
Capa 1
10
153.625800
20
198.339900
11
153.705900
21
198.328900
0
LINE
8
Capa 1
10
153.705900
20
198.328900
11
153.791400
21
198.329800
0
LINE
8
Capa 1
10
153.791400
20
198.329800
11
153.886200
21
198.341700
0
LINE
8
Capa 1
10
153.886200
20
198.341700
11
154.215900
21
198.404500
0
LINE
8
Capa 1
10
154.215900
20
198.404500
11
154.553200
21
198.442800
0
LINE
8
Capa 1
10
154.553200
20
198.442800
11
154.652200
21
198.456800
0
LINE
8
Capa 1
10
154.652200
20
198.456800
11
154.736200
21
198.472500
0
LINE
8
Capa 1
10
154.736200
20
198.472500
11
154.853700
21
198.504600
0
LINE
8
Capa 1
10
154.853700
20
198.504600
11
155.047500
21
198.539000
0
LINE
8
Capa 1
10
155.047500
20
198.539000
11
155.186700
21
198.556100
0
LINE
8
Capa 1
10
155.186700
20
198.556100
11
155.734800
21
198.647200
0
LINE
8
Capa 1
10
155.734800
20
198.647200
11
156.589700
21
198.807200
0
LINE
8
Capa 1
10
156.589700
20
198.807200
11
157.149700
21
198.924500
0
LINE
8
Capa 1
10
157.149700
20
198.924500
11
157.187100
21
198.939100
0
LINE
8
Capa 1
10
157.187100
20
198.939100
11
157.332400
21
198.978400
0
LINE
8
Capa 1
10
157.332400
20
198.978400
11
157.493300
21
199.009300
0
LINE
8
Capa 1
10
157.493300
20
199.009300
11
157.621100
21
199.025800
0
LINE
8
Capa 1
10
157.621100
20
199.025800
11
157.669100
21
199.021800
0
LINE
8
Capa 1
10
157.669100
20
199.021800
11
157.687100
21
199.023800
0
LINE
8
Capa 1
10
157.687100
20
199.023800
11
157.703500
21
199.030200
0
LINE
8
Capa 1
10
157.703500
20
199.030200
11
157.732100
21
199.052900
0
LINE
8
Capa 1
10
157.732100
20
199.052900
11
157.799800
21
199.081600
0
LINE
8
Capa 1
10
157.799800
20
199.081600
11
157.907400
21
199.113500
0
LINE
8
Capa 1
10
157.907400
20
199.113500
11
158.178000
21
199.173400
0
LINE
8
Capa 1
10
158.178000
20
199.173400
11
158.270300
21
199.203900
0
LINE
8
Capa 1
10
158.270300
20
199.203900
11
158.316200
21
199.229100
0
LINE
8
Capa 1
10
158.316200
20
199.229100
11
158.334900
21
199.233200
0
LINE
8
Capa 1
10
158.334900
20
199.233200
11
158.351400
21
199.230800
0
LINE
8
Capa 1
10
158.351400
20
199.230800
11
158.370900
21
199.217500
0
LINE
8
Capa 1
10
158.370900
20
199.217500
11
158.401000
21
199.218400
0
LINE
8
Capa 1
10
158.401000
20
199.218400
11
158.473500
21
199.241100
0
LINE
8
Capa 1
10
158.473500
20
199.241100
11
158.591000
21
199.295100
0
LINE
8
Capa 1
10
158.591000
20
199.295100
11
158.664400
21
199.316500
0
LINE
8
Capa 1
10
158.664400
20
199.316500
11
158.695400
21
199.316200
0
LINE
8
Capa 1
10
158.695400
20
199.316200
11
158.715900
21
199.302700
0
LINE
8
Capa 1
10
158.715900
20
199.302700
11
158.731500
21
199.304400
0
LINE
8
Capa 1
10
158.731500
20
199.304400
11
158.748100
21
199.315300
0
LINE
8
Capa 1
10
158.748100
20
199.315300
11
158.782200
21
199.354700
0
LINE
8
Capa 1
10
158.782200
20
199.354700
11
158.805000
21
199.365400
0
LINE
8
Capa 1
10
158.805000
20
199.365400
11
158.830000
21
199.366300
0
LINE
8
Capa 1
10
158.830000
20
199.366300
11
158.878800
21
199.346100
0
LINE
8
Capa 1
10
158.878800
20
199.346100
11
158.903400
21
199.342300
0
LINE
8
Capa 1
10
158.903400
20
199.342300
11
158.925700
21
199.345400
0
LINE
8
Capa 1
10
158.925700
20
199.345400
11
158.984200
21
199.384700
0
LINE
8
Capa 1
10
158.984200
20
199.384700
11
159.038000
21
199.407300
0
LINE
8
Capa 1
10
159.038000
20
199.407300
11
159.465400
21
199.537500
0
LINE
8
Capa 1
10
159.465400
20
199.537500
11
159.616800
21
199.569600
0
LINE
8
Capa 1
10
159.616800
20
199.569600
11
159.829900
21
199.637500
0
LINE
8
Capa 1
10
159.829900
20
199.637500
11
160.091600
21
199.734200
0
LINE
8
Capa 1
10
160.091600
20
199.734200
11
160.299500
21
199.821700
0
LINE
8
Capa 1
10
160.299500
20
199.821700
11
160.383100
21
199.870200
0
LINE
8
Capa 1
10
160.383100
20
199.870200
11
160.416600
21
199.884200
0
LINE
8
Capa 1
10
160.416600
20
199.884200
11
160.450700
21
199.892000
0
LINE
8
Capa 1
10
160.450700
20
199.892000
11
160.484400
21
199.893900
0
LINE
8
Capa 1
10
160.484400
20
199.893900
11
160.516600
21
199.889700
0
LINE
8
Capa 1
10
160.516600
20
199.889700
11
160.546300
21
199.879600
0
LINE
8
Capa 1
10
160.546300
20
199.879600
11
160.572300
21
199.863500
0
LINE
8
Capa 1
10
160.572300
20
199.863500
11
160.593700
21
199.841600
0
LINE
8
Capa 1
10
160.593700
20
199.841600
11
160.601700
21
199.825900
0
LINE
8
Capa 1
10
160.601700
20
199.825900
11
160.612500
21
199.772800
0
LINE
8
Capa 1
10
160.612500
20
199.772800
11
160.617500
21
199.654800
0
LINE
8
Capa 1
10
160.617500
20
199.654800
11
160.614500
21
199.563200
0
LINE
8
Capa 1
10
160.614500
20
199.563200
11
160.606500
21
199.471300
0
LINE
8
Capa 1
10
160.606500
20
199.471300
11
160.594300
21
199.387600
0
LINE
8
Capa 1
10
160.594300
20
199.387600
11
160.578400
21
199.320700
0
LINE
8
Capa 1
10
160.578400
20
199.320700
11
160.559300
21
199.279200
0
LINE
8
Capa 1
10
160.559300
20
199.279200
11
160.546900
21
199.267100
0
LINE
8
Capa 1
10
160.546900
20
199.267100
11
160.505100
21
199.241600
0
LINE
8
Capa 1
10
160.505100
20
199.241600
11
160.413500
21
199.205500
0
LINE
8
Capa 1
10
160.413500
20
199.205500
11
160.215500
21
199.157300
0
LINE
8
Capa 1
10
160.215500
20
199.157300
11
160.137200
21
199.130600
0
LINE
8
Capa 1
10
160.137200
20
199.130600
11
159.726200
21
199.041500
0
LINE
8
Capa 1
10
159.726200
20
199.041500
11
159.515200
21
198.988200
0
LINE
8
Capa 1
10
159.515200
20
198.988200
11
158.579800
21
198.673200
0
LINE
8
Capa 1
10
158.579800
20
198.673200
11
158.144200
21
198.514500
0
LINE
8
Capa 1
10
158.144200
20
198.514500
11
157.184600
21
198.170900
0
LINE
8
Capa 1
10
157.184600
20
198.170900
11
157.030800
21
198.127500
0
LINE
8
Capa 1
10
157.030800
20
198.127500
11
156.731000
21
198.027800
0
LINE
8
Capa 1
10
156.731000
20
198.027800
11
156.193100
21
197.859400
0
LINE
8
Capa 1
10
156.193100
20
197.859400
11
155.648400
21
197.710000
0
LINE
8
Capa 1
10
155.648400
20
197.710000
11
155.021100
21
197.558500
0
LINE
8
Capa 1
10
155.021100
20
197.558500
11
154.102500
21
197.362200
0
LINE
8
Capa 1
10
154.102500
20
197.362200
11
153.611200
21
197.247500
0
LINE
8
Capa 1
10
153.611200
20
197.247500
11
153.059700
21
197.101900
0
LINE
8
Capa 1
10
153.059700
20
197.101900
11
152.884000
21
197.070200
0
LINE
8
Capa 1
10
152.884000
20
197.070200
11
152.796500
21
197.050100
0
LINE
8
Capa 1
10
152.796500
20
197.050100
11
152.729800
21
197.055400
0
LINE
8
Capa 1
10
152.729800
20
197.055400
11
152.580600
21
197.085800
0
LINE
8
Capa 1
10
152.580600
20
197.085800
11
152.353000
21
197.150200
0
LINE
8
Capa 1
10
152.353000
20
197.150200
11
152.257000
21
197.173500
0
LINE
8
Capa 1
10
152.257000
20
197.173500
11
152.166000
21
197.187100
0
LINE
8
Capa 1
10
152.166000
20
197.187100
11
152.141600
21
197.180500
0
LINE
8
Capa 1
10
152.141600
20
197.180500
11
152.125800
21
197.183800
0
LINE
8
Capa 1
10
152.125800
20
197.183800
11
152.109200
21
197.193800
0
LINE
8
Capa 1
10
152.109200
20
197.193800
11
152.075700
21
197.226000
0
LINE
8
Capa 1
10
152.075700
20
197.226000
11
152.051400
21
197.236500
0
LINE
8
Capa 1
10
152.051400
20
197.236500
11
152.024100
21
197.240400
0
LINE
8
Capa 1
10
152.024100
20
197.240400
11
151.969700
21
197.234000
0
LINE
8
Capa 1
10
151.969700
20
197.234000
11
151.941700
21
197.238900
0
LINE
8
Capa 1
10
151.941700
20
197.238900
11
151.916300
21
197.250800
0
LINE
8
Capa 1
10
151.916300
20
197.250800
11
151.879700
21
197.286100
0
LINE
8
Capa 1
10
151.879700
20
197.286100
11
151.860800
21
197.296700
0
LINE
8
Capa 1
10
151.860800
20
197.296700
11
151.842400
21
197.299600
0
LINE
8
Capa 1
10
151.842400
20
197.299600
11
151.811400
21
197.288300
0
LINE
8
Capa 1
10
151.811400
20
197.288300
11
151.793200
21
197.291000
0
LINE
8
Capa 1
10
151.793200
20
197.291000
11
151.774500
21
197.301200
0
LINE
8
Capa 1
10
151.774500
20
197.301200
11
151.741200
21
197.335400
0
LINE
8
Capa 1
10
151.741200
20
197.335400
11
151.723400
21
197.346300
0
LINE
8
Capa 1
10
151.723400
20
197.346300
11
151.706500
21
197.349900
0
LINE
8
Capa 1
10
151.706500
20
197.349900
11
151.671800
21
197.342800
0
LINE
8
Capa 1
10
151.671800
20
197.342800
11
151.636500
21
197.351800
0
LINE
8
Capa 1
10
151.636500
20
197.351800
11
151.591500
21
197.370500
0
LINE
8
Capa 1
10
151.591500
20
197.370500
11
151.489600
21
197.425300
0
LINE
8
Capa 1
10
151.489600
20
197.425300
11
151.437400
21
197.447300
0
LINE
8
Capa 1
10
151.437400
20
197.447300
11
151.391500
21
197.461200
0
LINE
8
Capa 1
10
151.391500
20
197.461200
11
151.330900
21
197.466000
0
LINE
8
Capa 1
10
151.330900
20
197.466000
11
151.303500
21
197.474200
0
LINE
8
Capa 1
10
151.303500
20
197.474200
11
151.278900
21
197.487900
0
LINE
8
Capa 1
10
151.278900
20
197.487900
11
151.244500
21
197.522500
0
LINE
8
Capa 1
10
151.244500
20
197.522500
11
151.228000
21
197.533500
0
LINE
8
Capa 1
10
151.228000
20
197.533500
11
151.212600
21
197.537700
0
LINE
8
Capa 1
10
151.212600
20
197.537700
11
151.180800
21
197.532700
0
LINE
8
Capa 1
10
151.180800
20
197.532700
11
151.146100
21
197.542000
0
LINE
8
Capa 1
10
151.146100
20
197.542000
11
151.100900
21
197.560600
0
LINE
8
Capa 1
10
151.100900
20
197.560600
11
150.999000
21
197.614300
0
LINE
8
Capa 1
10
150.999000
20
197.614300
11
150.914700
21
197.652400
0
LINE
8
Capa 1
10
150.914700
20
197.652400
11
150.882500
21
197.660100
0
LINE
8
Capa 1
10
150.882500
20
197.660100
11
150.636900
21
197.773000
0
LINE
8
Capa 1
10
150.636900
20
197.773000
11
150.550200
21
197.806500
0
LINE
8
Capa 1
10
150.550200
20
197.806500
11
150.460100
21
197.835600
0
LINE
8
Capa 1
10
150.460100
20
197.835600
11
150.306900
21
197.874800
0
LINE
8
Capa 1
10
150.306900
20
197.874800
11
150.225400
21
197.908000
0
LINE
8
Capa 1
10
150.225400
20
197.908000
11
150.196500
21
197.930000
0
LINE
8
Capa 1
10
150.196500
20
197.930000
11
150.186300
21
197.957300
0
LINE
8
Capa 1
10
150.186300
20
197.957300
11
150.174200
21
197.970800
0
LINE
8
Capa 1
10
150.174200
20
197.970800
11
150.157300
21
197.979200
0
LINE
8
Capa 1
10
150.157300
20
197.979200
11
150.115800
21
197.985300
0
LINE
8
Capa 1
10
150.115800
20
197.985300
11
150.093900
21
198.000300
0
LINE
8
Capa 1
10
150.093900
20
198.000300
11
150.074500
21
198.023900
0
LINE
8
Capa 1
10
150.074500
20
198.023900
11
150.045000
21
198.085600
0
LINE
8
Capa 1
10
150.045000
20
198.085600
11
150.027400
21
198.102800
0
LINE
8
Capa 1
10
150.027400
20
198.102800
11
150.006900
21
198.105100
0
LINE
8
Capa 1
10
150.006900
20
198.105100
11
149.961800
21
198.082100
0
LINE
8
Capa 1
10
149.961800
20
198.082100
11
149.943000
21
198.082000
0
LINE
8
Capa 1
10
149.943000
20
198.082000
11
149.927500
21
198.092400
0
LINE
8
Capa 1
10
149.927500
20
198.092400
11
149.905200
21
198.133300
0
LINE
8
Capa 1
10
149.905200
20
198.133300
11
149.885000
21
198.147200
0
LINE
8
Capa 1
10
149.885000
20
198.147200
11
149.859200
21
198.153200
0
LINE
8
Capa 1
10
149.859200
20
198.153200
11
149.796100
21
198.143200
0
LINE
8
Capa 1
10
149.796100
20
198.143200
11
149.775300
21
198.149100
0
LINE
8
Capa 1
10
149.775300
20
198.149100
11
149.765300
21
198.170100
0
LINE
8
Capa 1
10
149.765300
20
198.170100
11
149.763300
21
198.246100
0
LINE
8
Capa 1
10
149.763300
20
198.246100
11
149.756300
21
198.263600
0
LINE
8
Capa 1
10
149.756300
20
198.263600
11
149.749300
21
198.265300
0
LINE
8
Capa 1
10
149.749300
20
198.265300
11
149.739300
21
198.262500
0
LINE
8
Capa 1
10
149.739300
20
198.262500
11
149.683500
21
198.229100
0
LINE
8
Capa 1
10
149.683500
20
198.229100
11
149.660300
21
198.229600
0
LINE
8
Capa 1
10
149.660300
20
198.229600
11
149.640500
21
198.246200
0
LINE
8
Capa 1
10
149.640500
20
198.246200
11
149.607100
21
198.308500
0
LINE
8
Capa 1
10
149.607100
20
198.308500
11
149.589100
21
198.327100
0
LINE
8
Capa 1
10
149.589100
20
198.327100
11
149.570500
21
198.334300
0
LINE
8
Capa 1
10
149.570500
20
198.334300
11
149.528500
21
198.323400
0
LINE
8
Capa 1
10
149.528500
20
198.323400
11
149.489600
21
198.329500
0
LINE
8
Capa 1
10
149.489600
20
198.329500
11
149.441600
21
198.346000
0
LINE
8
Capa 1
10
149.441600
20
198.346000
11
149.338800
21
198.399000
0
LINE
8
Capa 1
10
149.338800
20
198.399000
11
149.255500
21
198.437800
0
LINE
8
Capa 1
10
149.255500
20
198.437800
11
149.220700
21
198.448000
0
LINE
8
Capa 1
10
149.220700
20
198.448000
11
148.845000
21
198.629500
0
LINE
8
Capa 1
10
148.845000
20
198.629500
11
148.191800
21
198.933800
0
LINE
8
Capa 1
10
148.191800
20
198.933800
11
146.883600
21
199.507400
0
LINE
8
Capa 1
10
146.883600
20
199.507400
11
146.532400
21
199.675400
0
LINE
8
Capa 1
10
146.532400
20
199.675400
11
146.390200
21
199.751800
0
LINE
8
Capa 1
10
146.390200
20
199.751800
11
146.017600
21
199.967900
0
LINE
8
Capa 1
10
146.017600
20
199.967900
11
145.349500
21
200.328600
0
LINE
8
Capa 1
10
145.349500
20
200.328600
11
144.380100
21
200.820900
0
LINE
8
Capa 1
10
144.380100
20
200.820900
11
143.839900
21
201.122500
0
LINE
8
Capa 1
10
143.839900
20
201.122500
11
143.759700
21
201.174500
0
LINE
8
Capa 1
10
143.759700
20
201.174500
11
143.455000
21
201.347900
0
LINE
8
Capa 1
10
143.455000
20
201.347900
11
143.325600
21
201.429600
0
LINE
8
Capa 1
10
143.325600
20
201.429600
11
143.280800
21
201.469100
0
LINE
8
Capa 1
10
143.280800
20
201.469100
11
143.265100
21
201.471900
0
LINE
8
Capa 1
10
143.265100
20
201.471900
11
143.251800
21
201.463900
0
LINE
8
Capa 1
10
143.251800
20
201.463900
11
143.241700
21
201.447200
0
LINE
8
Capa 1
10
143.241700
20
201.447200
11
143.235700
21
201.424100
0
LINE
8
Capa 1
10
143.235700
20
201.424100
11
143.234700
21
201.396700
0
LINE
8
Capa 1
10
143.234700
20
201.396700
11
143.239700
21
201.367200
0
LINE
8
Capa 1
10
143.239700
20
201.367200
11
143.251200
21
201.337700
0
LINE
8
Capa 1
10
143.251200
20
201.337700
11
143.992100
21
200.092200
0
LINE
8
Capa 1
10
143.992100
20
200.092200
11
144.186900
21
199.786200
0
LINE
8
Capa 1
10
144.186900
20
199.786200
11
144.768400
21
198.959700
0
LINE
8
Capa 1
10
144.768400
20
198.959700
11
145.609800
21
197.825200
0
LINE
8
Capa 1
10
145.609800
20
197.825200
11
145.724900
21
197.263300
0
LINE
8
Capa 1
10
145.724900
20
197.263300
11
145.837800
21
196.746500
0
LINE
8
Capa 1
10
145.837800
20
196.746500
11
145.907700
21
196.500500
0
LINE
8
Capa 1
10
145.907700
20
196.500500
11
145.974700
21
196.332100
0
LINE
8
Capa 1
10
145.974700
20
196.332100
11
146.041100
21
196.150900
0
LINE
8
Capa 1
10
146.041100
20
196.150900
11
146.468700
21
194.846200
0
LINE
8
Capa 1
10
146.468700
20
194.846200
11
146.686100
21
194.134000
0
LINE
8
Capa 1
10
146.686100
20
194.134000
11
146.972800
21
193.210800
0
LINE
8
Capa 1
10
146.972800
20
193.210800
11
147.283200
21
192.146900
0
LINE
8
Capa 1
10
147.283200
20
192.146900
11
147.625300
21
191.019000
0
LINE
8
Capa 1
10
147.625300
20
191.019000
11
147.746600
21
190.665600
0
LINE
8
Capa 1
10
147.746600
20
190.665600
11
147.798900
21
190.541800
0
LINE
8
Capa 1
10
147.798900
20
190.541800
11
148.013400
21
189.945600
0
LINE
8
Capa 1
10
148.013400
20
189.945600
11
148.328900
21
188.951100
0
LINE
8
Capa 1
10
148.328900
20
188.951100
11
148.515500
21
188.398700
0
LINE
8
Capa 1
10
148.515500
20
188.398700
11
148.584200
21
188.228800
0
LINE
8
Capa 1
10
148.584200
20
188.228800
11
148.623000
21
188.164300
0
LINE
8
Capa 1
10
148.623000
20
188.164300
11
148.646900
21
188.105700
0
LINE
8
Capa 1
10
148.646900
20
188.105700
11
148.665100
21
188.040500
0
LINE
8
Capa 1
10
148.665100
20
188.040500
11
148.677000
21
187.972200
0
LINE
8
Capa 1
10
148.677000
20
187.972200
11
148.682000
21
187.904300
0
LINE
8
Capa 1
10
148.682000
20
187.904300
11
148.680000
21
187.840400
0
LINE
8
Capa 1
10
148.680000
20
187.840400
11
148.671000
21
187.784000
0
LINE
8
Capa 1
10
148.671000
20
187.784000
11
148.626900
21
187.679600
0
LINE
8
Capa 1
10
148.626900
20
187.679600
11
148.573200
21
187.508500
0
LINE
8
Capa 1
10
148.573200
20
187.508500
11
148.537700
21
187.346300
0
LINE
8
Capa 1
10
148.537700
20
187.346300
11
148.493600
21
187.180100
0
LINE
8
Capa 1
10
148.493600
20
187.180100
11
148.399300
21
186.889300
0
LINE
8
Capa 1
10
148.399300
20
186.889300
11
148.322700
21
186.680600
0
LINE
8
Capa 1
10
148.322700
20
186.680600
11
148.239100
21
186.470400
0
LINE
8
Capa 1
10
148.239100
20
186.470400
11
148.151800
21
186.267800
0
LINE
8
Capa 1
10
148.151800
20
186.267800
11
148.021600
21
185.997200
0
LINE
8
Capa 1
10
148.021600
20
185.997200
11
147.797600
21
185.585800
0
LINE
8
Capa 1
10
147.797600
20
185.585800
11
147.590900
21
185.185300
0
LINE
8
Capa 1
10
147.590900
20
185.185300
11
147.493600
21
185.012200
0
LINE
8
Capa 1
10
147.493600
20
185.012200
11
147.381700
21
184.836500
0
LINE
8
Capa 1
10
147.381700
20
184.836500
11
147.231400
21
184.578900
0
LINE
8
Capa 1
10
147.231400
20
184.578900
11
147.151400
21
184.421600
0
LINE
8
Capa 1
10
147.151400
20
184.421600
11
146.938100
21
184.036600
0
LINE
8
Capa 1
10
146.938100
20
184.036600
11
146.637800
21
183.527600
0
LINE
8
Capa 1
10
146.637800
20
183.527600
11
146.302500
21
182.928100
0
LINE
8
Capa 1
10
146.302500
20
182.928100
11
146.113700
21
182.607600
0
LINE
8
Capa 1
10
146.113700
20
182.607600
11
145.131600
21
180.848900
0
LINE
8
Capa 1
10
145.131600
20
180.848900
11
144.782700
21
180.588100
0
LINE
8
Capa 1
10
144.782700
20
180.588100
11
144.542300
21
180.413700
0
LINE
8
Capa 1
10
144.542300
20
180.413700
11
144.453500
21
180.362800
0
LINE
8
Capa 1
10
144.453500
20
180.362800
11
144.404500
21
180.345700
0
LINE
8
Capa 1
10
144.404500
20
180.345700
11
144.356400
21
180.338700
0
LINE
8
Capa 1
10
144.356400
20
180.338700
11
144.238100
21
180.343700
0
LINE
8
Capa 1
10
144.238100
20
180.343700
11
144.156300
21
180.354000
0
LINE
8
Capa 1
10
144.156300
20
180.354000
11
144.043300
21
180.380200
0
LINE
8
Capa 1
10
144.043300
20
180.380200
11
143.987300
21
180.401400
0
LINE
8
Capa 1
10
143.987300
20
180.401400
11
143.944400
21
180.431000
0
LINE
8
Capa 1
10
143.944400
20
180.431000
11
143.927500
21
180.450700
0
LINE
8
Capa 1
10
143.927500
20
180.450700
11
143.918500
21
180.476800
0
LINE
8
Capa 1
10
143.918500
20
180.476800
11
143.917500
21
180.514700
0
LINE
8
Capa 1
10
143.917500
20
180.514700
11
143.924500
21
180.569600
0
LINE
8
Capa 1
10
143.924500
20
180.569600
11
143.998700
21
180.889600
0
LINE
8
Capa 1
10
143.998700
20
180.889600
11
144.010900
21
180.927100
0
LINE
8
Capa 1
10
144.010900
20
180.927100
11
144.028000
21
180.963100
0
LINE
8
Capa 1
10
144.028000
20
180.963100
11
144.047500
21
180.993400
0
LINE
8
Capa 1
10
144.047500
20
180.993400
11
144.084900
21
181.031600
0
LINE
8
Capa 1
10
144.084900
20
181.031600
11
144.098700
21
181.053300
0
LINE
8
Capa 1
10
144.098700
20
181.053300
11
144.106700
21
181.076600
0
LINE
8
Capa 1
10
144.106700
20
181.076600
11
144.113700
21
181.120100
0
LINE
8
Capa 1
10
144.113700
20
181.120100
11
144.129900
21
181.142000
0
LINE
8
Capa 1
10
144.129900
20
181.142000
11
144.155000
21
181.161900
0
LINE
8
Capa 1
10
144.155000
20
181.161900
11
144.219300
21
181.190800
0
LINE
8
Capa 1
10
144.219300
20
181.190800
11
144.235800
21
181.203500
0
LINE
8
Capa 1
10
144.235800
20
181.203500
11
144.235700
21
181.214900
0
LINE
8
Capa 1
10
144.235700
20
181.214900
11
144.205100
21
181.233200
0
LINE
8
Capa 1
10
144.205100
20
181.233200
11
144.198100
21
181.243600
0
LINE
8
Capa 1
10
144.198100
20
181.243600
11
144.197700
21
181.256000
0
LINE
8
Capa 1
10
144.197700
20
181.256000
11
144.203700
21
181.270300
0
LINE
8
Capa 1
10
144.203700
20
181.270300
11
144.236100
21
181.303400
0
LINE
8
Capa 1
10
144.236100
20
181.303400
11
144.309000
21
181.353800
0
LINE
8
Capa 1
10
144.309000
20
181.353800
11
144.318000
21
181.369100
0
LINE
8
Capa 1
10
144.318000
20
181.369100
11
144.319000
21
181.385300
0
LINE
8
Capa 1
10
144.319000
20
181.385300
11
144.307800
21
181.417500
0
LINE
8
Capa 1
10
144.307800
20
181.417500
11
144.313800
21
181.438800
0
LINE
8
Capa 1
10
144.313800
20
181.438800
11
144.328900
21
181.461600
0
LINE
8
Capa 1
10
144.328900
20
181.461600
11
144.375900
21
181.504200
0
LINE
8
Capa 1
10
144.375900
20
181.504200
11
144.392600
21
181.525000
0
LINE
8
Capa 1
10
144.392600
20
181.525000
11
144.400600
21
181.543300
0
LINE
8
Capa 1
10
144.400600
20
181.543300
11
144.396600
21
181.573500
0
LINE
8
Capa 1
10
144.396600
20
181.573500
11
144.403600
21
181.602400
0
LINE
8
Capa 1
10
144.403600
20
181.602400
11
144.416900
21
181.639600
0
LINE
8
Capa 1
10
144.416900
20
181.639600
11
144.456400
21
181.723300
0
LINE
8
Capa 1
10
144.456400
20
181.723300
11
144.500700
21
181.793300
0
LINE
8
Capa 1
10
144.500700
20
181.793300
11
144.549500
21
181.847100
0
LINE
8
Capa 1
10
144.549500
20
181.847100
11
144.646900
21
182.005500
0
LINE
8
Capa 1
10
144.646900
20
182.005500
11
144.944300
21
182.578100
0
LINE
8
Capa 1
10
144.944300
20
182.578100
11
145.198200
21
183.109200
0
LINE
8
Capa 1
10
145.198200
20
183.109200
11
145.422300
21
183.611200
0
LINE
8
Capa 1
10
145.422300
20
183.611200
11
145.530200
21
183.878000
0
LINE
8
Capa 1
10
145.530200
20
183.878000
11
145.694900
21
184.364200
0
LINE
8
Capa 1
10
145.694900
20
184.364200
11
145.799200
21
184.647000
0
LINE
8
Capa 1
10
145.799200
20
184.647000
11
145.833200
21
184.713200
0
LINE
8
Capa 1
10
145.833200
20
184.713200
11
145.840200
21
184.713100
0
LINE
8
Capa 1
10
145.840200
20
184.713100
11
145.844200
21
184.720100
0
LINE
8
Capa 1
10
145.844200
20
184.720100
11
145.884000
21
184.935100
0
LINE
8
Capa 1
10
145.884000
20
184.935100
11
145.898200
21
184.994900
0
LINE
8
Capa 1
10
145.898200
20
184.994900
11
145.921200
21
185.054400
0
LINE
8
Capa 1
10
145.921200
20
185.054400
11
145.939500
21
185.075400
0
LINE
8
Capa 1
10
145.939500
20
185.075400
11
145.944500
21
185.090400
0
LINE
8
Capa 1
10
145.944500
20
185.090400
11
145.943900
21
185.106100
0
LINE
8
Capa 1
10
145.943900
20
185.106100
11
145.932900
21
185.137300
0
LINE
8
Capa 1
10
145.932900
20
185.137300
11
145.938900
21
185.158500
0
LINE
8
Capa 1
10
145.938900
20
185.158500
11
145.954900
21
185.181400
0
LINE
8
Capa 1
10
145.954900
20
185.181400
11
146.002400
21
185.225200
0
LINE
8
Capa 1
10
146.002400
20
185.225200
11
146.013700
21
185.245000
0
LINE
8
Capa 1
10
146.013700
20
185.245000
11
146.012700
21
185.261200
0
LINE
8
Capa 1
10
146.012700
20
185.261200
11
145.984400
21
185.285100
0
LINE
8
Capa 1
10
145.984400
20
185.285100
11
145.981400
21
185.305800
0
LINE
8
Capa 1
10
145.981400
20
185.305800
11
145.988400
21
185.331800
0
LINE
8
Capa 1
10
145.988400
20
185.331800
11
146.025500
21
185.389300
0
LINE
8
Capa 1
10
146.025500
20
185.389300
11
146.038400
21
185.417300
0
LINE
8
Capa 1
10
146.038400
20
185.417300
11
146.043400
21
185.441000
0
LINE
8
Capa 1
10
146.043400
20
185.441000
11
146.036400
21
185.469400
0
LINE
8
Capa 1
10
146.036400
20
185.469400
11
146.038400
21
185.569200
0
LINE
8
Capa 1
10
146.038400
20
185.569200
11
146.082100
21
185.941600
0
LINE
8
Capa 1
10
146.082100
20
185.941600
11
146.094100
21
186.099300
0
LINE
8
Capa 1
10
146.094100
20
186.099300
11
146.100100
21
186.252400
0
LINE
8
Capa 1
10
146.100100
20
186.252400
11
146.095100
21
186.505600
0
LINE
8
Capa 1
10
146.095100
20
186.505600
11
146.097100
21
186.710300
0
LINE
8
Capa 1
10
146.097100
20
186.710300
11
146.114800
21
186.990700
0
LINE
8
Capa 1
10
146.114800
20
186.990700
11
146.116800
21
187.094500
0
LINE
8
Capa 1
10
146.116800
20
187.094500
11
146.113800
21
187.187500
0
LINE
8
Capa 1
10
146.113800
20
187.187500
11
146.085900
21
187.395900
0
LINE
8
Capa 1
10
146.085900
20
187.395900
11
146.070100
21
187.618700
0
LINE
8
Capa 1
10
146.070100
20
187.618700
11
146.037600
21
187.824600
0
LINE
8
Capa 1
10
146.037600
20
187.824600
11
146.002800
21
187.982800
0
LINE
8
Capa 1
10
146.002800
20
187.982800
11
145.978800
21
188.122200
0
LINE
8
Capa 1
10
145.978800
20
188.122200
11
145.948100
21
188.368400
0
LINE
8
Capa 1
10
145.948100
20
188.368400
11
145.929100
21
188.607500
0
LINE
8
Capa 1
10
145.929100
20
188.607500
11
145.891200
21
188.945000
0
LINE
8
Capa 1
10
145.891200
20
188.945000
11
145.766700
21
189.808800
0
LINE
8
Capa 1
10
145.766700
20
189.808800
11
145.466100
21
191.621700
0
LINE
8
Capa 1
10
145.466100
20
191.621700
11
145.415100
21
191.945500
0
LINE
8
Capa 1
10
145.415100
20
191.945500
11
145.403300
21
192.068400
0
LINE
8
Capa 1
10
145.403300
20
192.068400
11
145.395300
21
192.102500
0
LINE
8
Capa 1
10
145.395300
20
192.102500
11
145.344000
21
192.246000
0
LINE
8
Capa 1
10
145.344000
20
192.246000
11
145.327900
21
192.311000
0
LINE
8
Capa 1
10
145.327900
20
192.311000
11
145.316300
21
192.378300
0
LINE
8
Capa 1
10
145.316300
20
192.378300
11
145.307300
21
192.496000
0
LINE
8
Capa 1
10
145.307300
20
192.496000
11
145.299300
21
192.548800
0
LINE
8
Capa 1
10
145.299300
20
192.548800
11
145.287700
21
192.592300
0
LINE
8
Capa 1
10
145.287700
20
192.592300
11
145.261100
21
192.642200
0
LINE
8
Capa 1
10
145.261100
20
192.642200
11
145.244800
21
192.693500
0
LINE
8
Capa 1
10
145.244800
20
192.693500
11
145.242800
21
192.725400
0
LINE
8
Capa 1
10
145.242800
20
192.725400
11
144.952100
21
193.964200
0
LINE
8
Capa 1
10
144.952100
20
193.964200
11
144.915400
21
194.155800
0
LINE
8
Capa 1
10
144.915400
20
194.155800
11
144.643100
21
195.195800
0
LINE
8
Capa 1
10
144.643100
20
195.195800
11
144.524500
21
195.659600
0
LINE
8
Capa 1
10
144.524500
20
195.659600
11
144.491700
21
195.828600
0
LINE
8
Capa 1
10
144.491700
20
195.828600
11
144.394300
21
196.217500
0
LINE
8
Capa 1
10
144.394300
20
196.217500
11
144.374400
21
196.310600
0
LINE
8
Capa 1
10
144.374400
20
196.310600
11
144.361700
21
196.410200
0
LINE
8
Capa 1
10
144.361700
20
196.410200
11
144.364700
21
196.461900
0
LINE
8
Capa 1
10
144.364700
20
196.461900
11
144.359700
21
196.509800
0
LINE
8
Capa 1
10
144.359700
20
196.509800
11
144.348900
21
196.565100
0
LINE
8
Capa 1
10
144.348900
20
196.565100
11
144.316000
21
196.691400
0
LINE
8
Capa 1
10
144.316000
20
196.691400
11
144.288200
21
196.887400
0
LINE
8
Capa 1
10
144.288200
20
196.887400
11
144.272100
21
197.094400
0
LINE
8
Capa 1
10
144.272100
20
197.094400
11
144.242300
21
197.261800
0
LINE
8
Capa 1
10
144.242300
20
197.261800
11
144.215500
21
197.360100
0
LINE
8
Capa 1
10
144.215500
20
197.360100
11
144.190000
21
197.424300
0
LINE
8
Capa 1
10
144.190000
20
197.424300
11
144.125400
21
197.534900
0
LINE
8
Capa 1
10
144.125400
20
197.534900
11
143.780300
21
198.033600
0
LINE
8
Capa 1
10
143.780300
20
198.033600
11
143.432500
21
198.501500
0
LINE
8
Capa 1
10
143.432500
20
198.501500
11
143.084500
21
198.948000
0
LINE
8
Capa 1
10
143.084500
20
198.948000
11
142.843900
21
199.237700
0
LINE
8
Capa 1
10
142.843900
20
199.237700
11
142.377300
21
199.739200
0
LINE
8
Capa 1
10
142.377300
20
199.739200
11
141.993900
21
200.180500
0
LINE
8
Capa 1
10
141.993900
20
200.180500
11
141.845800
21
198.633600
0
LINE
8
Capa 1
10
141.845800
20
198.633600
11
141.797500
21
197.984600
0
LINE
8
Capa 1
10
141.797500
20
197.984600
11
141.785300
21
197.467900
0
LINE
8
Capa 1
10
141.785300
20
197.467900
11
141.759500
21
196.805300
0
LINE
8
Capa 1
10
141.759500
20
196.805300
11
141.738600
21
196.517700
0
LINE
8
Capa 1
10
141.738600
20
196.517700
11
141.713200
21
195.714700
0
LINE
8
Capa 1
10
141.713200
20
195.714700
11
141.700300
21
195.513800
0
LINE
8
Capa 1
10
141.700300
20
195.513800
11
141.680200
21
195.332800
0
LINE
8
Capa 1
10
141.680200
20
195.332800
11
141.652500
21
195.170200
0
LINE
8
Capa 1
10
141.652500
20
195.170200
11
141.617100
21
195.024400
0
LINE
8
Capa 1
10
141.617100
20
195.024400
11
141.573600
21
194.894200
0
LINE
8
Capa 1
10
141.573600
20
194.894200
11
141.521600
21
194.778100
0
LINE
8
Capa 1
10
141.521600
20
194.778100
11
141.461000
21
194.674500
0
LINE
8
Capa 1
10
141.461000
20
194.674500
11
141.100500
21
194.161900
0
LINE
8
Capa 1
10
141.100500
20
194.161900
11
140.550700
21
193.413500
0
LINE
8
Capa 1
10
140.550700
20
193.413500
11
140.046400
21
192.762700
0
LINE
8
Capa 1
10
140.046400
20
192.762700
11
139.862300
21
192.536900
0
LINE
8
Capa 1
10
139.862300
20
192.536900
11
139.677200
21
192.317300
0
LINE
8
Capa 1
10
139.677200
20
192.317300
11
139.483500
21
192.095000
0
LINE
8
Capa 1
10
139.483500
20
192.095000
11
138.919200
21
191.474100
0
LINE
8
Capa 1
10
138.919200
20
191.474100
11
137.536900
21
189.948400
0
LINE
8
Capa 1
10
137.536900
20
189.948400
11
136.673600
21
189.009900
0
LINE
8
Capa 1
10
136.673600
20
189.009900
11
136.365900
21
188.692600
0
LINE
8
Capa 1
10
136.365900
20
188.692600
11
136.179000
21
188.514100
0
LINE
8
Capa 1
10
136.179000
20
188.514100
11
135.978800
21
188.335300
0
LINE
8
Capa 1
10
135.978800
20
188.335300
11
135.101300
21
187.600800
0
LINE
8
Capa 1
10
135.101300
20
187.600800
11
134.883500
21
187.407800
0
LINE
8
Capa 1
10
134.883500
20
187.407800
11
134.730900
21
187.257700
0
LINE
8
Capa 1
10
134.730900
20
187.257700
11
134.349500
21
186.923500
0
LINE
8
Capa 1
10
134.349500
20
186.923500
11
133.822500
21
186.494000
0
LINE
8
Capa 1
10
133.822500
20
186.494000
11
133.488700
21
186.214700
0
LINE
8
Capa 1
10
133.488700
20
186.214700
11
133.312100
21
186.051100
0
LINE
8
Capa 1
10
133.312100
20
186.051100
11
133.300700
21
186.033100
0
LINE
8
Capa 1
10
133.300700
20
186.033100
11
133.306700
21
186.000500
0
LINE
8
Capa 1
10
133.306700
20
186.000500
11
133.308700
21
185.961300
0
LINE
8
Capa 1
10
133.308700
20
185.961300
11
133.299700
21
185.871900
0
LINE
8
Capa 1
10
133.299700
20
185.871900
11
133.277300
21
185.783700
0
LINE
8
Capa 1
10
133.277300
20
185.783700
11
133.262000
21
185.746000
0
LINE
8
Capa 1
10
133.262000
20
185.746000
11
133.244500
21
185.715600
0
LINE
8
Capa 1
10
133.244500
20
185.715600
11
133.227500
21
185.697600
0
LINE
8
Capa 1
10
133.227500
20
185.697600
11
133.202500
21
185.680200
0
LINE
8
Capa 1
10
133.202500
20
185.680200
11
133.128500
21
185.647200
0
LINE
8
Capa 1
10
133.128500
20
185.647200
11
133.022100
21
185.616300
0
LINE
8
Capa 1
10
133.022100
20
185.616300
11
132.759700
21
185.563900
0
LINE
8
Capa 1
10
132.759700
20
185.563900
11
132.575000
21
185.520100
0
LINE
8
Capa 1
10
132.575000
20
185.520100
11
132.477200
21
185.480100
0
LINE
8
Capa 1
10
132.477200
20
185.480100
11
132.350000
21
185.442900
0
LINE
8
Capa 1
10
132.350000
20
185.442900
11
131.864100
21
185.325000
0
LINE
8
Capa 1
10
131.864100
20
185.325000
11
131.658700
21
185.269900
0
LINE
8
Capa 1
10
131.658700
20
185.269900
11
131.384300
21
185.176700
0
LINE
8
Capa 1
10
131.384300
20
185.176700
11
131.193200
21
185.115400
0
LINE
8
Capa 1
10
131.193200
20
185.115400
11
130.858100
21
185.026000
0
LINE
8
Capa 1
10
130.858100
20
185.026000
11
129.496900
21
184.718300
0
LINE
8
Capa 1
10
129.496900
20
184.718300
11
129.268900
21
184.676200
0
LINE
8
Capa 1
10
129.268900
20
184.676200
11
128.983600
21
184.639800
0
LINE
8
Capa 1
10
128.983600
20
184.639800
11
128.705400
21
184.615700
0
LINE
8
Capa 1
10
128.705400
20
184.615700
11
128.604600
21
184.603800
0
LINE
8
Capa 1
10
128.604600
20
184.603800
11
128.393200
21
184.570400
0
LINE
8
Capa 1
10
128.393200
20
184.570400
11
128.185800
21
184.527100
0
LINE
8
Capa 1
10
128.185800
20
184.527100
11
127.831400
21
184.430400
0
LINE
8
Capa 1
10
127.831400
20
184.430400
11
127.645700
21
184.389100
0
LINE
8
Capa 1
10
127.645700
20
184.389100
11
127.554500
21
184.372200
0
LINE
8
Capa 1
10
127.554500
20
184.372200
11
127.389300
21
184.348300
0
LINE
8
Capa 1
10
127.389300
20
184.348300
11
127.019000
21
184.325800
0
LINE
8
Capa 1
10
127.019000
20
184.325800
11
126.726300
21
184.690900
0
LINE
8
Capa 1
10
126.726300
20
184.690900
11
126.637700
21
184.811100
0
LINE
8
Capa 1
10
126.637700
20
184.811100
11
126.587900
21
184.895300
0
LINE
8
Capa 1
10
126.587900
20
184.895300
11
126.575800
21
184.927200
0
LINE
8
Capa 1
10
126.575800
20
184.927200
11
126.570800
21
184.953900
0
LINE
8
Capa 1
10
126.570800
20
184.953900
11
126.572000
21
184.976000
 0 
ENDSEC
 0 
EOF