999
"DXF R12 Output" (www.mydxf.blogspot.com)
 0 
SECTION
 2 
HEADER
 9 
$ACADVER
 1 
AC1009
 9 
$EXTMIN
 10 
 0 
 20 
 0 
 9 
$EXTMAX
 10 
 8.5 
 20 
 11 
 0 
ENDSEC
 0 
SECTION
 2 
ENTITIES
0
LINE
8
Capa 1
10
103.684000
20
193.906000
11
101.292556
21
190.671609
0
LINE
8
Capa 1
10
101.292556
20
190.671609
11
98.090419
21
186.861125
0
LINE
8
Capa 1
10
98.090419
20
186.861125
11
90.738834
21
178.711514
0
LINE
8
Capa 1
10
90.738834
20
178.711514
11
84.598781
21
171.856446
0
LINE
8
Capa 1
10
84.598781
20
171.856446
11
82.911061
21
169.664140
0
LINE
8
Capa 1
10
82.911061
20
169.664140
11
82.575173
21
169.008005
0
LINE
8
Capa 1
10
82.575173
20
169.008005
11
82.639800
21
168.695200
0
LINE
8
Capa 1
10
82.639800
20
168.695200
11
83.546197
21
168.635851
0
LINE
8
Capa 1
10
83.546197
20
168.635851
11
84.997228
21
168.923889
0
LINE
8
Capa 1
10
84.997228
20
168.923889
11
88.972616
21
170.104360
0
LINE
8
Capa 1
10
88.972616
20
170.104360
11
93.444822
21
171.361076
0
LINE
8
Capa 1
10
93.444822
20
171.361076
11
95.516873
21
171.744421
0
LINE
8
Capa 1
10
95.516873
20
171.744421
11
97.292700
21
171.818500
0
LINE
8
Capa 1
10
97.292700
20
171.818500
11
93.481184
21
168.111409
0
LINE
8
Capa 1
10
93.481184
20
168.111409
11
89.495495
21
163.807593
0
LINE
8
Capa 1
10
89.495495
20
163.807593
11
85.536497
21
159.144188
0
LINE
8
Capa 1
10
85.536497
20
159.144188
11
81.805049
21
154.358328
0
LINE
8
Capa 1
10
81.805049
20
154.358328
11
78.502014
21
149.687144
0
LINE
8
Capa 1
10
78.502014
20
149.687144
11
75.828253
21
145.367773
0
LINE
8
Capa 1
10
75.828253
20
145.367773
11
73.984628
21
141.637347
0
LINE
8
Capa 1
10
73.984628
20
141.637347
11
73.436885
21
140.067093
0
LINE
8
Capa 1
10
73.436885
20
140.067093
11
73.172000
21
138.733000
0
LINE
8
Capa 1
10
73.172000
20
138.733000
11
73.281490
21
138.603330
0
LINE
8
Capa 1
10
73.281490
20
138.603330
11
73.634253
21
138.608808
0
LINE
8
Capa 1
10
73.634253
20
138.608808
11
74.982607
21
138.952816
0
LINE
8
Capa 1
10
74.982607
20
138.952816
11
79.641670
21
140.466309
0
LINE
8
Capa 1
10
79.641670
20
140.466309
11
82.604407
21
141.346230
0
LINE
8
Capa 1
10
82.604407
20
141.346230
11
85.757298
21
142.115227
0
LINE
8
Capa 1
10
85.757298
20
142.115227
11
88.926358
21
142.628517
0
LINE
8
Capa 1
10
88.926358
20
142.628517
11
91.937600
21
142.741320
0
LINE
8
Capa 1
10
91.937600
20
142.741320
11
86.532246
21
137.067158
0
LINE
8
Capa 1
10
86.532246
20
137.067158
11
81.217745
21
130.827951
0
LINE
8
Capa 1
10
81.217745
20
130.827951
11
76.222607
21
124.390116
0
LINE
8
Capa 1
10
76.222607
20
124.390116
11
71.775338
21
118.120070
0
LINE
8
Capa 1
10
71.775338
20
118.120070
11
68.104445
21
112.384230
0
LINE
8
Capa 1
10
68.104445
20
112.384230
11
65.438436
21
107.549014
0
LINE
8
Capa 1
10
65.438436
20
107.549014
11
64.553672
21
105.583645
0
LINE
8
Capa 1
10
64.553672
20
105.583645
11
64.005819
21
103.980838
0
LINE
8
Capa 1
10
64.005819
20
103.980838
11
63.823440
21
102.786396
0
LINE
8
Capa 1
10
63.823440
20
102.786396
11
64.035100
21
102.046120
0
LINE
8
Capa 1
10
64.035100
20
102.046120
11
64.427048
21
101.718916
0
LINE
8
Capa 1
10
64.427048
20
101.718916
11
64.985927
21
101.472288
0
LINE
8
Capa 1
10
64.985927
20
101.472288
11
66.636105
21
101.185395
0
LINE
8
Capa 1
10
66.636105
20
101.185395
11
69.048880
21
101.114716
0
LINE
8
Capa 1
10
69.048880
20
101.114716
11
72.287496
21
101.189529
0
LINE
8
Capa 1
10
72.287496
20
101.189529
11
81.495239
21
101.492731
0
LINE
8
Capa 1
10
81.495239
20
101.492731
11
87.590857
21
101.579673
0
LINE
8
Capa 1
10
87.590857
20
101.579673
11
94.765300
21
101.529210
0
LINE
8
Capa 1
10
94.765300
20
101.529210
11
94.338475
21
87.832710
0
LINE
8
Capa 1
10
94.338475
20
87.832710
11
106.607575
21
87.764210
0
LINE
8
Capa 1
10
106.607575
20
87.764210
11
106.744585
21
101.918010
0
LINE
8
Capa 1
10
106.744585
20
101.918010
11
132.793485
21
102.920750
0
LINE
8
Capa 1
10
132.793485
20
102.920750
11
133.155125
21
103.052388
0
LINE
8
Capa 1
10
133.155125
20
103.052388
11
133.378079
21
103.406600
0
LINE
8
Capa 1
10
133.378079
20
103.406600
11
133.441293
21
104.723264
0
LINE
8
Capa 1
10
133.441293
20
104.723264
11
133.049866
21
106.751779
0
LINE
8
Capa 1
10
133.049866
20
106.751779
11
132.270534
21
109.373182
0
LINE
8
Capa 1
10
132.270534
20
109.373182
11
129.815102
21
115.918804
0
LINE
8
Capa 1
10
129.815102
20
115.918804
11
126.608893
21
123.408429
0
LINE
8
Capa 1
10
126.608893
20
123.408429
11
120.079722
21
137.412886
0
LINE
8
Capa 1
10
120.079722
20
137.412886
11
116.954185
21
143.772950
0
LINE
8
Capa 1
10
116.954185
20
143.772950
11
119.889625
21
143.670370
0
LINE
8
Capa 1
10
119.889625
20
143.670370
11
122.793485
21
143.228556
0
LINE
8
Capa 1
10
122.793485
20
143.228556
11
125.564723
21
142.566816
0
LINE
8
Capa 1
10
125.564723
20
142.566816
11
128.102296
21
141.804460
0
LINE
8
Capa 1
10
128.102296
20
141.804460
11
132.072277
21
140.455139
0
LINE
8
Capa 1
10
132.072277
20
140.455139
11
133.302599
21
140.106794
0
LINE
8
Capa 1
10
133.302599
20
140.106794
11
133.895085
21
140.135070
0
LINE
8
Capa 1
10
133.895085
20
140.135070
11
134.125839
21
140.687752
0
LINE
8
Capa 1
10
134.125839
20
140.687752
11
134.179794
21
141.629932
0
LINE
8
Capa 1
10
134.179794
20
141.629932
11
133.783766
21
144.508575
0
LINE
8
Capa 1
10
133.783766
20
144.508575
11
132.759916
21
148.422584
0
LINE
8
Capa 1
10
132.759916
20
148.422584
11
131.161160
21
153.023539
0
LINE
8
Capa 1
10
131.161160
20
153.023539
11
129.040413
21
157.963023
0
LINE
8
Capa 1
10
129.040413
20
157.963023
11
126.450592
21
162.892618
0
LINE
8
Capa 1
10
126.450592
20
162.892618
11
124.996314
21
165.244826
0
LINE
8
Capa 1
10
124.996314
20
165.244826
11
123.444610
21
167.463906
0
LINE
8
Capa 1
10
123.444610
20
167.463906
11
121.802096
21
169.506305
0
LINE
8
Capa 1
10
121.802096
20
169.506305
11
120.075385
21
171.328470
0
LINE
8
Capa 1
10
120.075385
20
171.328470
11
121.955842
21
171.284984
0
LINE
8
Capa 1
10
121.955842
20
171.284984
11
123.887077
21
171.091509
0
LINE
8
Capa 1
10
123.887077
20
171.091509
11
127.559127
21
170.486472
0
LINE
8
Capa 1
10
127.559127
20
170.486472
11
130.406032
21
169.977117
0
LINE
8
Capa 1
10
130.406032
20
169.977117
11
131.305834
21
169.903244
0
LINE
8
Capa 1
10
131.305834
20
169.903244
11
131.742285
21
170.027200
0
LINE
8
Capa 1
10
131.742285
20
170.027200
11
131.698050
21
170.521714
0
LINE
8
Capa 1
10
131.698050
20
170.521714
11
131.236467
21
171.471099
0
LINE
8
Capa 1
10
131.236467
20
171.471099
11
129.258107
21
174.512363
0
LINE
8
Capa 1
10
129.258107
20
174.512363
11
122.458560
21
183.610025
0
LINE
8
Capa 1
10
122.458560
20
183.610025
11
108.511785
21
201.427200
0
LINE
8
Capa 1
10
108.511785
20
201.427200
11
103.684000
21
193.906000
0
LINE
8
Capa 1
10
109.157000
20
152.781000
11
105.174240
21
153.778210
0
LINE
8
Capa 1
10
105.174240
20
153.778210
11
102.854260
21
150.390810
0
LINE
8
Capa 1
10
102.854260
20
150.390810
11
102.571919
21
154.486790
0
LINE
8
Capa 1
10
102.571919
20
154.486790
11
98.633399
21
155.646460
0
LINE
8
Capa 1
10
98.633399
20
155.646460
11
102.441659
21
157.180710
0
LINE
8
Capa 1
10
102.441659
20
157.180710
11
102.327498
21
161.284820
0
LINE
8
Capa 1
10
102.327498
20
161.284820
11
104.963478
21
158.137060
0
LINE
8
Capa 1
10
104.963478
20
158.137060
11
108.831448
21
159.513870
0
LINE
8
Capa 1
10
108.831448
20
159.513870
11
106.652308
21
156.034200
0
LINE
8
Capa 1
10
106.652308
20
156.034200
11
109.157000
21
152.781000
0
LINE
8
Capa 1
10
112.944000
20
171.858000
11
108.961240
21
172.855210
0
LINE
8
Capa 1
10
108.961240
20
172.855210
11
106.641260
21
169.467810
0
LINE
8
Capa 1
10
106.641260
20
169.467810
11
106.358919
21
173.563790
0
LINE
8
Capa 1
10
106.358919
20
173.563790
11
102.420399
21
174.723460
0
LINE
8
Capa 1
10
102.420399
20
174.723460
11
106.228659
21
176.257710
0
LINE
8
Capa 1
10
106.228659
20
176.257710
11
106.114498
21
180.361820
0
LINE
8
Capa 1
10
106.114498
20
180.361820
11
108.750478
21
177.214060
0
LINE
8
Capa 1
10
108.750478
20
177.214060
11
112.618448
21
178.590870
0
LINE
8
Capa 1
10
112.618448
20
178.590870
11
110.439308
21
175.111200
0
LINE
8
Capa 1
10
110.439308
20
175.111200
11
112.944000
21
171.858000
0
LINE
8
Capa 1
10
100.375000
20
129.684000
11
96.392240
21
130.681210
0
LINE
8
Capa 1
10
96.392240
20
130.681210
11
94.072260
21
127.293810
0
LINE
8
Capa 1
10
94.072260
20
127.293810
11
93.789919
21
131.389790
0
LINE
8
Capa 1
10
93.789919
20
131.389790
11
89.851399
21
132.549460
0
LINE
8
Capa 1
10
89.851399
20
132.549460
11
93.659659
21
134.083710
0
LINE
8
Capa 1
10
93.659659
20
134.083710
11
93.545498
21
138.187820
0
LINE
8
Capa 1
10
93.545498
20
138.187820
11
96.181478
21
135.040060
0
LINE
8
Capa 1
10
96.181478
20
135.040060
11
100.049448
21
136.416870
0
LINE
8
Capa 1
10
100.049448
20
136.416870
11
97.870308
21
132.937200
0
LINE
8
Capa 1
10
97.870308
20
132.937200
11
100.375000
21
129.684000
0
LINE
8
Capa 1
10
103.352000
20
109.672000
11
99.369240
21
110.669210
0
LINE
8
Capa 1
10
99.369240
20
110.669210
11
97.049260
21
107.281810
0
LINE
8
Capa 1
10
97.049260
20
107.281810
11
96.766919
21
111.377790
0
LINE
8
Capa 1
10
96.766919
20
111.377790
11
92.828399
21
112.537460
0
LINE
8
Capa 1
10
92.828399
20
112.537460
11
96.636659
21
114.071710
0
LINE
8
Capa 1
10
96.636659
20
114.071710
11
96.522498
21
118.175820
0
LINE
8
Capa 1
10
96.522498
20
118.175820
11
99.158478
21
115.028060
0
LINE
8
Capa 1
10
99.158478
20
115.028060
11
103.026448
21
116.404870
0
LINE
8
Capa 1
10
103.026448
20
116.404870
11
100.847308
21
112.925200
0
LINE
8
Capa 1
10
100.847308
20
112.925200
11
103.352000
21
109.672000
0
LINE
8
Capa 1
10
119.064000
20
123.896000
11
115.081240
21
124.893210
0
LINE
8
Capa 1
10
115.081240
20
124.893210
11
112.761260
21
121.505810
0
LINE
8
Capa 1
10
112.761260
20
121.505810
11
112.478919
21
125.601790
0
LINE
8
Capa 1
10
112.478919
20
125.601790
11
108.540399
21
126.761460
0
LINE
8
Capa 1
10
108.540399
20
126.761460
11
112.348659
21
128.295710
0
LINE
8
Capa 1
10
112.348659
20
128.295710
11
112.234498
21
132.399820
0
LINE
8
Capa 1
10
112.234498
20
132.399820
11
114.870478
21
129.252060
0
LINE
8
Capa 1
10
114.870478
20
129.252060
11
118.738448
21
130.628870
0
LINE
8
Capa 1
10
118.738448
20
130.628870
11
116.559308
21
127.149200
0
LINE
8
Capa 1
10
116.559308
20
127.149200
11
119.064000
21
123.896000
 0 
ENDSEC
 0 
EOF