999
dxfrw 0.6.3
  0
SECTION
  2
HEADER
  9
$ACADVER
  1
AC1021
  9
$DWGCODEPAGE
  3
ANSI_1252
  9
$INSBASE
 10
0
 20
0
 30
0
  9
$EXTMIN
 10
-10
 20
-40
 30
0
  9
$EXTMAX
 10
190
 20
54.91670736924894
 30
0
  9
$LIMMIN
 10
0
 20
0
  9
$LIMMAX
 10
420
 20
297
  9
$ORTHOMODE
 70
    0
  9
$REGENMODE
 70
    1
  9
$FILLMODE
 70
    1
  9
$QTEXTMODE
 70
    0
  9
$MIRRTEXT
 70
    0
  9
$LTSCALE
 40
1
  9
$ATTMODE
 70
    0
  9
$TEXTSIZE
 40
2.5
  9
$TRACEWID
 40
15.68
  9
$TEXTSTYLE
  7
STANDARD
  9
$CLAYER
  8
0
  9
$CELTYPE
  6
BYLAYER
  9
$CECOLOR
 62
  256
  9
$CELTSCALE
 40
1
  9
$DISPSILH
 70
    0
  9
$DIMSCALE
 40
2.5
  9
$DIMASZ
 40
2.5
  9
$DIMEXO
 40
0.625
  9
$DIMDLI
 40
3.75
  9
$DIMRND
 40
0
  9
$DIMDLE
 40
0
  9
$DIMEXE
 40
1.25
  9
$DIMTP
 40
0
  9
$DIMTM
 40
0
  9
$DIMTXT
 40
2.5
  9
$DIMCEN
 40
2.5
  9
$DIMTSZ
 40
0
  9
$DIMTOL
 70
    0
  9
$DIMLIM
 70
    0
  9
$DIMTIH
 70
    0
  9
$DIMTOH
 70
    0
  9
$DIMSE1
 70
    0
  9
$DIMSE2
 70
    0
  9
$DIMTAD
 70
    1
  9
$DIMZIN
 70
    8
  9
$DIMBLK
  1

  9
$DIMASO
 70
    1
  9
$DIMSHO
 70
    1
  9
$DIMPOST
  1

  9
$DIMAPOST
  1

  9
$DIMALT
 70
    0
  9
$DIMALTD
 70
    3
  9
$DIMALTF
 40
0.03937
  9
$DIMLFAC
 40
1
  9
$DIMTOFL
 70
    1
  9
$DIMTVP
 40
0
  9
$DIMTIX
 70
    0
  9
$DIMSOXD
 70
    0
  9
$DIMSAH
 70
    0
  9
$DIMBLK1
  1

  9
$DIMBLK2
  1

  9
$DIMSTYLE
  2
STANDARD
  9
$DIMCLRD
 70
    0
  9
$DIMCLRE
 70
    0
  9
$DIMCLRT
 70
    0
  9
$DIMTFAC
 40
1
  9
$DIMGAP
 40
0.625
  9
$DIMJUST
 70
    0
  9
$DIMSD1
 70
    0
  9
$DIMSD2
 70
    0
  9
$DIMTOLJ
 70
    0
  9
$DIMTZIN
 70
    8
  9
$DIMALTZ
 70
    0
  9
$DIMALTTZ
 70
    0
  9
$DIMUPT
 70
    0
  9
$DIMDEC
 70
    2
  9
$DIMTDEC
 70
    2
  9
$DIMALTU
 70
    2
  9
$DIMALTTD
 70
    3
  9
$DIMTXSTY
  7
STANDARD
  9
$DIMAUNIT
 70
    0
  9
$DIMADEC
 70
    0
  9
$DIMALTRND
 40
0
  9
$DIMAZIN
 70
    0
  9
$DIMDSEP
 70
   44
  9
$DIMATFIT
 70
    3
  9
$DIMFRAC
 70
    0
  9
$DIMLDRBLK
  1
STANDARD
  9
$DIMLUNIT
 70
    2
  9
$DIMLWD
 70
   -2
  9
$DIMLWE
 70
   -2
  9
$DIMTMOVE
 70
    0
  9
$DIMFXL
 40
1
  9
$DIMFXLON
 70
    0
  9
$DIMJOGANG
 40
0.7854
  9
$DIMTFILL
 70
    0
  9
$DIMTFILLCLR
 70
    0
  9
$DIMARCSYM
 70
    0
  9
$DIMLTYPE
  6

  9
$DIMLTEX1
  6

  9
$DIMLTEX2
  6

  9
$LUNITS
 70
    2
  9
$LUPREC
 70
    4
  9
$SKETCHINC
 40
1
  9
$FILLETRAD
 40
0
  9
$AUNITS
 70
    0
  9
$AUPREC
 70
    2
  9
$MENU
  1
.
  9
$ELEVATION
 40
0
  9
$PELEVATION
 40
0
  9
$THICKNESS
 40
0
  9
$LIMCHECK
 70
    0
  9
$CHAMFERA
 40
0
  9
$CHAMFERB
 40
0
  9
$CHAMFERC
 40
0
  9
$CHAMFERD
 40
0
  9
$SKPOLY
 70
    0
  9
$USRTIMER
 70
    1
  9
$ANGBASE
 50
0
  9
$ANGDIR
 70
    0
  9
$PDMODE
 70
   34
  9
$PDSIZE
 40
0
  9
$PLINEWID
 40
0
  9
$SPLFRAME
 70
    0
  9
$SPLINETYPE
 70
    2
  9
$SPLINESEGS
 70
    8
  9
$HANDSEED
  5
20000
  9
$SURFTAB1
 70
    6
  9
$SURFTAB2
 70
    6
  9
$SURFTYPE
 70
    6
  9
$SURFU
 70
    6
  9
$SURFV
 70
    6
  9
$UCSBASE
  2

  9
$UCSNAME
  2

  9
$UCSORG
 10
0
 20
0
 30
0
  9
$UCSXDIR
 10
1
 20
0
 30
0
  9
$UCSYDIR
 10
0
 20
1
 30
0
  9
$UCSORTHOREF
  2

  9
$UCSORTHOVIEW
 70
    0
  9
$UCSORGTOP
 10
0
 20
0
 30
0
  9
$UCSORGBOTTOM
 10
0
 20
0
 30
0
  9
$UCSORGLEFT
 10
0
 20
0
 30
0
  9
$UCSORGRIGHT
 10
0
 20
0
 30
0
  9
$UCSORGFRONT
 10
0
 20
0
 30
0
  9
$UCSORGBACK
 10
0
 20
0
 30
0
  9
$PUCSBASE
  2

  9
$PUCSNAME
  2

  9
$PUCSORG
 10
0
 20
0
 30
0
  9
$PUCSXDIR
 10
1
 20
0
 30
0
  9
$PUCSYDIR
 10
0
 20
1
 30
0
  9
$PUCSORTHOREF
  2

  9
$PUCSORTHOVIEW
 70
    0
  9
$PUCSORGTOP
 10
0
 20
0
 30
0
  9
$PUCSORGBOTTOM
 10
0
 20
0
 30
0
  9
$PUCSORGLEFT
 10
0
 20
0
 30
0
  9
$PUCSORGRIGHT
 10
0
 20
0
 30
0
  9
$PUCSORGFRONT
 10
0
 20
0
 30
0
  9
$PUCSORGBACK
 10
0
 20
0
 30
0
  9
$USERI1
 70
    0
  9
$USERI2
 70
    0
  9
$USERI3
 70
    0
  9
$USERI4
 70
    0
  9
$USERI5
 70
    0
  9
$USERR1
 40
0
  9
$USERR2
 40
0
  9
$USERR3
 40
0
  9
$USERR4
 40
0
  9
$USERR5
 40
0
  9
$WORLDVIEW
 70
    1
  9
$SHADEDGE
 70
    3
  9
$SHADEDIF
 70
   70
  9
$TILEMODE
 70
    1
  9
$MAXACTVP
 70
   64
  9
$PINSBASE
 10
0
 20
0
 30
0
  9
$PLIMCHECK
 70
    0
  9
$PEXTMIN
 10
0
 20
0
 30
0
  9
$PEXTMAX
 10
0
 20
0
 30
0
  9
$GRIDMODE
 70
    1
  9
$SNAPSTYLE
 70
    0
  9
$PLIMMIN
 10
0
 20
0
  9
$PLIMMAX
 10
210
 20
297
  9
$UNITMODE
 70
    0
  9
$VISRETAIN
 70
    1
  9
$PLINEGEN
 70
    0
  9
$PSLTSCALE
 70
    1
  9
$TREEDEPTH
 70
 3020
  9
$CMLSTYLE
  2
Standard
  9
$CMLJUST
 70
    0
  9
$CMLSCALE
 40
20
  9
$PROXYGRAPHICS
 70
    1
  9
$MEASUREMENT
 70
    1
  9
$CELWEIGHT
370
   -1
  9
$ENDCAPS
280
    0
  9
$JOINSTYLE
280
    0
  9
$LWDISPLAY
290
    0
  9
$INSUNITS
 70
    0
  9
$HYPERLINKBASE
  1

  9
$STYLESHEET
  1

  9
$XEDIT
290
    1
  9
$CEPSNTYPE
380
    0
  9
$PSTYLEMODE
290
    1
  9
$EXTNAMES
290
    1
  9
$PSVPSCALE
 40
1
  9
$OLESTARTUP
290
    0
  9
$SORTENTS
280
  127
  9
$INDEXCTL
280
    0
  9
$HIDETEXT
280
    1
  9
$XCLIPFRAME
290
    0
  9
$HALOGAP
280
    0
  9
$OBSCOLOR
 70
  257
  9
$OBSLTYPE
280
    0
  9
$INTERSECTIONDISPLAY
280
    0
  9
$INTERSECTIONCOLOR
 70
  257
  9
$DIMASSOC
280
    1
  9
$PROJECTNAME
  1

  9
$CAMERADISPLAY
290
    0
  9
$LENSLENGTH
 40
50
  9
$CAMERAHEIGHT
 40
0
  9
$STEPSPERSEC
 40
2
  9
$STEPSIZE
 40
50
  9
$3DDWFPREC
 40
2
  9
$PSOLWIDTH
 40
5
  9
$PSOLHEIGHT
 40
80
  9
$LOFTANG1
 40
1.570796326794897
  9
$LOFTANG2
 40
1.570796326794897
  9
$LOFTMAG1
 40
0
  9
$LOFTMAG2
 40
0
  9
$LOFTPARAM
 70
    7
  9
$LOFTNORMALS
280
    1
  9
$LATITUDE
 40
1
  9
$LONGITUDE
 40
1
  9
$NORTHDIRECTION
 40
0
  9
$TIMEZONE
 70
-8000
  9
$LIGHTGLYPHDISPLAY
280
    1
  9
$TILEMODELIGHTSYNCH
280
    1
  9
$SOLIDHIST
280
    1
  9
$SHOWHIST
280
    1
  9
$DWFFRAME
280
    2
  9
$DGNFRAME
280
    0
  9
$REALWORLDSCALE
290
    1
  9
$INTERFERECOLOR
 62
    1
  9
$CSHADOW
280
    0
  9
$SHADOWPLANELOCATION
 40
0
  0
ENDSEC
  0
SECTION
  2
CLASSES
  0
ENDSEC
  0
SECTION
  2
TABLES
  0
TABLE
  2
VPORT
  5
8
330
0
100
AcDbSymbolTable
 70
    1
  0
VPORT
  5
31
330
2
100
AcDbSymbolTableRecord
100
AcDbViewportTableRecord
  2
*ACTIVE
 70
    0
 10
0
 20
0
 11
1
 21
1
 12
110.9973005538237
 22
29.56926059378402
 13
0
 23
0
 14
10
 24
10
 15
10
 25
10
 16
0
 26
0
 36
1
 17
0
 27
0
 37
0
 40
110.9222516690679
 41
2.190798376184032
 42
50
 43
0
 44
0
 50
0
 51
0
 71
    0
 72
  100
 73
    1
 74
    3
 75
    0
 76
    1
 77
    0
 78
    0
281
    0
 65
    1
110
0
120
0
130
0
111
1
121
0
131
0
112
0
122
1
132
0
 79
    0
146
0
348
10020
 60
    7
 61
    5
292
1
282
    1
141
0
142
0
 63
  250
421
3358443
  0
ENDTAB
  0
TABLE
  2
LTYPE
  5
5
330
0
100
AcDbSymbolTable
 70
    4
  0
LTYPE
  5
14
330
5
100
AcDbSymbolTableRecord
100
AcDbLinetypeTableRecord
  2
ByBlock
 70
    0
  3

 72
   65
 73
    0
 40
0
  0
LTYPE
  5
15
330
5
100
AcDbSymbolTableRecord
100
AcDbLinetypeTableRecord
  2
ByLayer
 70
    0
  3

 72
   65
 73
    0
 40
0
  0
LTYPE
  5
16
330
5
100
AcDbSymbolTableRecord
100
AcDbLinetypeTableRecord
  2
Continuous
 70
    0
  3
Solid line
 72
   65
 73
    0
 40
0
  0
LTYPE
  5
32
330
5
100
AcDbSymbolTableRecord
100
AcDbLinetypeTableRecord
  2
DOT
 70
    0
  3
Dot . . . . . . . . . . . . . . . . . . . . . .
 72
   65
 73
    2
 40
6.35
 49
0
 74
    0
 49
-6.35
 74
    0
  0
LTYPE
  5
33
330
5
100
AcDbSymbolTableRecord
100
AcDbLinetypeTableRecord
  2
DOTTINY
 70
    0
  3
Dot (.15x) .....................................
 72
   65
 73
    2
 40
0.9525
 49
0
 74
    0
 49
-0.9525
 74
    0
  0
LTYPE
  5
34
330
5
100
AcDbSymbolTableRecord
100
AcDbLinetypeTableRecord
  2
DOT2
 70
    0
  3
Dot (.5x) .....................................
 72
   65
 73
    2
 40
3.175
 49
0
 74
    0
 49
-3.175
 74
    0
  0
LTYPE
  5
35
330
5
100
AcDbSymbolTableRecord
100
AcDbLinetypeTableRecord
  2
DOTX2
 70
    0
  3
Dot (2x) .  .  .  .  .  .  .  .  .  .  .  .  .
 72
   65
 73
    2
 40
12.7
 49
0
 74
    0
 49
-12.7
 74
    0
  0
LTYPE
  5
36
330
5
100
AcDbSymbolTableRecord
100
AcDbLinetypeTableRecord
  2
DASHED
 70
    0
  3
Dashed _ _ _ _ _ _ _ _ _ _ _ _ _ _ _ _ _
 72
   65
 73
    2
 40
19.05
 49
12.7
 74
    0
 49
-6.35
 74
    0
  0
LTYPE
  5
37
330
5
100
AcDbSymbolTableRecord
100
AcDbLinetypeTableRecord
  2
DASHEDTINY
 70
    0
  3
Dashed (.15x) _ _ _ _ _ _ _ _ _ _ _ _ _ _ _ _ _
 72
   65
 73
    2
 40
2.8575
 49
1.905
 74
    0
 49
-0.9525
 74
    0
  0
LTYPE
  5
38
330
5
100
AcDbSymbolTableRecord
100
AcDbLinetypeTableRecord
  2
DASHED2
 70
    0
  3
Dashed (.5x) _ _ _ _ _ _ _ _ _ _ _ _ _ _ _ _ _
 72
   65
 73
    2
 40
9.524999999999999
 49
6.35
 74
    0
 49
-3.175
 74
    0
  0
LTYPE
  5
39
330
5
100
AcDbSymbolTableRecord
100
AcDbLinetypeTableRecord
  2
DASHEDX2
 70
    0
  3
Dashed (2x) ____  ____  ____  ____  ____  ___
 72
   65
 73
    2
 40
38.09999999999999
 49
25.4
 74
    0
 49
-12.7
 74
    0
  0
LTYPE
  5
3A
330
5
100
AcDbSymbolTableRecord
100
AcDbLinetypeTableRecord
  2
DASHDOT
 70
    0
  3
Dash dot __ . __ . __ . __ . __ . __ . __ . __
 72
   65
 73
    4
 40
25.4
 49
12.7
 74
    0
 49
-6.35
 74
    0
 49
0
 74
    0
 49
-6.35
 74
    0
  0
LTYPE
  5
3B
330
5
100
AcDbSymbolTableRecord
100
AcDbLinetypeTableRecord
  2
DASHDOTTINY
 70
    0
  3
Dash dot (.15x) _._._._._._._._._._._._._._._.
 72
   65
 73
    4
 40
3.81
 49
1.905
 74
    0
 49
-0.9525
 74
    0
 49
0
 74
    0
 49
-0.9525
 74
    0
  0
LTYPE
  5
3C
330
5
100
AcDbSymbolTableRecord
100
AcDbLinetypeTableRecord
  2
DASHDOT2
 70
    0
  3
Dash dot (.5x) _._._._._._._._._._._._._._._.
 72
   65
 73
    4
 40
12.7
 49
6.35
 74
    0
 49
-3.175
 74
    0
 49
0
 74
    0
 49
-3.175
 74
    0
  0
LTYPE
  5
3D
330
5
100
AcDbSymbolTableRecord
100
AcDbLinetypeTableRecord
  2
DASHDOTX2
 70
    0
  3
Dash dot (2x) ____  .  ____  .  ____  .  ___
 72
   65
 73
    4
 40
50.8
 49
25.4
 74
    0
 49
-12.7
 74
    0
 49
0
 74
    0
 49
-12.7
 74
    0
  0
LTYPE
  5
3E
330
5
100
AcDbSymbolTableRecord
100
AcDbLinetypeTableRecord
  2
DIVIDE
 70
    0
  3
Divide ____ . . ____ . . ____ . . ____ . . ____
 72
   65
 73
    6
 40
31.75
 49
12.7
 74
    0
 49
-6.35
 74
    0
 49
0
 74
    0
 49
-6.35
 74
    0
 49
0
 74
    0
 49
-6.35
 74
    0
  0
LTYPE
  5
3F
330
5
100
AcDbSymbolTableRecord
100
AcDbLinetypeTableRecord
  2
DIVIDETINY
 70
    0
  3
Divide (.15x) __..__..__..__..__..__..__..__.._
 72
   65
 73
    6
 40
4.7625
 49
1.905
 74
    0
 49
-0.9525
 74
    0
 49
0
 74
    0
 49
-0.9525
 74
    0
 49
0
 74
    0
 49
-0.9525
 74
    0
  0
LTYPE
  5
40
330
5
100
AcDbSymbolTableRecord
100
AcDbLinetypeTableRecord
  2
DIVIDE2
 70
    0
  3
Divide (.5x) __..__..__..__..__..__..__..__.._
 72
   65
 73
    6
 40
15.875
 49
6.35
 74
    0
 49
-3.175
 74
    0
 49
0
 74
    0
 49
-3.175
 74
    0
 49
0
 74
    0
 49
-3.175
 74
    0
  0
LTYPE
  5
41
330
5
100
AcDbSymbolTableRecord
100
AcDbLinetypeTableRecord
  2
DIVIDEX2
 70
    0
  3
Divide (2x) ________  .  .  ________  .  .  _
 72
   65
 73
    6
 40
63.5
 49
25.4
 74
    0
 49
-12.7
 74
    0
 49
0
 74
    0
 49
-12.7
 74
    0
 49
0
 74
    0
 49
-12.7
 74
    0
  0
LTYPE
  5
42
330
5
100
AcDbSymbolTableRecord
100
AcDbLinetypeTableRecord
  2
BORDER
 70
    0
  3
Border __ __ . __ __ . __ __ . __ __ . __ __ .
 72
   65
 73
    6
 40
44.45
 49
12.7
 74
    0
 49
-6.35
 74
    0
 49
12.7
 74
    0
 49
-6.35
 74
    0
 49
0
 74
    0
 49
-6.35
 74
    0
  0
LTYPE
  5
43
330
5
100
AcDbSymbolTableRecord
100
AcDbLinetypeTableRecord
  2
BORDERTINY
 70
    0
  3
Border (.15x) __.__.__.__.__.__.__.__.__.__.__.
 72
   65
 73
    6
 40
6.6675
 49
1.905
 74
    0
 49
-0.9525
 74
    0
 49
1.905
 74
    0
 49
-0.9525
 74
    0
 49
0
 74
    0
 49
-0.9525
 74
    0
  0
LTYPE
  5
44
330
5
100
AcDbSymbolTableRecord
100
AcDbLinetypeTableRecord
  2
BORDER2
 70
    0
  3
Border (.5x) __.__.__.__.__.__.__.__.__.__.__.
 72
   65
 73
    6
 40
22.225
 49
6.35
 74
    0
 49
-3.175
 74
    0
 49
6.35
 74
    0
 49
-3.175
 74
    0
 49
0
 74
    0
 49
-3.175
 74
    0
  0
LTYPE
  5
45
330
5
100
AcDbSymbolTableRecord
100
AcDbLinetypeTableRecord
  2
BORDERX2
 70
    0
  3
Border (2x) ____  ____  .  ____  ____  .  ___
 72
   65
 73
    6
 40
88.89999999999999
 49
25.4
 74
    0
 49
-12.7
 74
    0
 49
25.4
 74
    0
 49
-12.7
 74
    0
 49
0
 74
    0
 49
-12.7
 74
    0
  0
LTYPE
  5
46
330
5
100
AcDbSymbolTableRecord
100
AcDbLinetypeTableRecord
  2
CENTER
 70
    0
  3
Center ____ _ ____ _ ____ _ ____ _ ____ _ ____
 72
   65
 73
    4
 40
50.8
 49
31.75
 74
    0
 49
-6.35
 74
    0
 49
6.35
 74
    0
 49
-6.35
 74
    0
  0
LTYPE
  5
47
330
5
100
AcDbSymbolTableRecord
100
AcDbLinetypeTableRecord
  2
CENTERTINY
 70
    0
  3
Center (.15x) ___ _ ___ _ ___ _ ___ _ ___ _ ___
 72
   65
 73
    4
 40
7.619999999999999
 49
4.7625
 74
    0
 49
-0.9525
 74
    0
 49
0.9525
 74
    0
 49
-0.9525
 74
    0
  0
LTYPE
  5
48
330
5
100
AcDbSymbolTableRecord
100
AcDbLinetypeTableRecord
  2
CENTER2
 70
    0
  3
Center (.5x) ___ _ ___ _ ___ _ ___ _ ___ _ ___
 72
   65
 73
    4
 40
28.575
 49
19.05
 74
    0
 49
-3.175
 74
    0
 49
3.175
 74
    0
 49
-3.175
 74
    0
  0
LTYPE
  5
49
330
5
100
AcDbSymbolTableRecord
100
AcDbLinetypeTableRecord
  2
CENTERX2
 70
    0
  3
Center (2x) ________  __  ________  __  _____
 72
   65
 73
    4
 40
101.6
 49
63.5
 74
    0
 49
-12.7
 74
    0
 49
12.7
 74
    0
 49
-12.7
 74
    0
  0
ENDTAB
  0
TABLE
  2
LAYER
  5
2
330
0
100
AcDbSymbolTable
 70
    1
  0
LAYER
  5
10
330
2
100
AcDbSymbolTableRecord
100
AcDbLayerTableRecord
  2
0
 70
    0
 62
    1
  6
CONTINUOUS
370
    9
390
F
  0
LAYER
  5
4A
330
2
100
AcDbSymbolTableRecord
100
AcDbLayerTableRecord
  2
CORTAR
 70
    0
 62
    1
  6
CONTINUOUS
370
    5
390
F
  0
LAYER
  5
4B
330
2
100
AcDbSymbolTableRecord
100
AcDbLayerTableRecord
  2
GRABAR
 70
    0
 62
    5
  6
CONTINUOUS
370
    5
390
F
  0
LAYER
  5
4C
330
2
100
AcDbSymbolTableRecord
100
AcDbLayerTableRecord
  2
letras
 70
    0
 62
    5
  6
CONTINUOUS
370
    9
390
F
  0
LAYER
  5
4D
330
2
100
AcDbSymbolTableRecord
100
AcDbLayerTableRecord
  2
letras2
 70
    0
 62
    7
  6
CONTINUOUS
370
    0
390
F
  0
ENDTAB
  0
TABLE
  2
STYLE
  5
3
330
0
100
AcDbSymbolTable
 70
    3
  0
STYLE
  5
4E
330
2
100
AcDbSymbolTableRecord
100
AcDbTextStyleTableRecord
  2
romansi
 70
    0
 40
0
 41
1
 50
0
 71
    0
 42
1
  3
romansi
  4

  0
STYLE
  5
4F
330
2
100
AcDbSymbolTableRecord
100
AcDbTextStyleTableRecord
  2
Standard
 70
    0
 40
0
 41
1
 50
0
 71
    0
 42
1
  3
txt
  4

  0
ENDTAB
  0
TABLE
  2
VIEW
  5
6
330
0
100
AcDbSymbolTable
 70
    0
  0
ENDTAB
  0
TABLE
  2
UCS
  5
7
330
0
100
AcDbSymbolTable
 70
    0
  0
ENDTAB
  0
TABLE
  2
APPID
  5
9
330
0
100
AcDbSymbolTable
 70
    1
  0
APPID
  5
12
330
9
100
AcDbSymbolTableRecord
100
AcDbRegAppTableRecord
  2
ACAD
 70
    0
  0
APPID
  5
50
330
9
100
AcDbSymbolTableRecord
100
AcDbRegAppTableRecord
  2
LibreCad
 70
    0
  0
ENDTAB
  0
TABLE
  2
DIMSTYLE
  5
A
330
0
100
AcDbSymbolTable
 70
    1
100
AcDbDimStyleTable
 71
    1
  0
DIMSTYLE
105
51
330
A
100
AcDbSymbolTableRecord
100
AcDbDimStyleTableRecord
  2
Standard
 70
    0
 40
2.5
 41
2.5
 42
0.625
 43
0.38
 44
1.25
 45
0
 46
0
 47
0
 48
0
 49
1
140
2.5
141
0.09
142
0
143
25.4
144
1
145
0
146
1
147
0.625
148
0
 71
    0
 72
    0
 73
    0
 74
    1
 75
    0
 76
    0
 77
    0
 78
    8
 79
    0
170
    0
171
    2
172
    0
173
    0
174
    0
175
    0
176
    0
177
    0
178
    0
179
    0
271
    2
272
    4
273
    2
274
    2
275
    0
276
    0
277
    2
278
   44
279
    0
280
    0
281
    0
282
    0
283
    1
284
    0
285
    0
286
    0
288
    0
289
    3
340
STANDARD
341

371
   -2
372
   -2
  0
ENDTAB
  0
TABLE
  2
BLOCK_RECORD
  5
1
330
0
100
AcDbSymbolTable
 70
    2
  0
BLOCK_RECORD
  5
1F
330
1
100
AcDbSymbolTableRecord
100
AcDbBlockTableRecord
  2
*Model_Space
 70
    0
280
    1
281
    0
  0
BLOCK_RECORD
  5
1E
330
1
100
AcDbSymbolTableRecord
100
AcDbBlockTableRecord
  2
*Paper_Space
 70
    0
280
    1
281
    0
  0
ENDTAB
  0
ENDSEC
  0
SECTION
  2
BLOCKS
  0
BLOCK
  5
20
330
1F
100
AcDbEntity
  8
0
100
AcDbBlockBegin
  2
*Model_Space
 70
    0
 10
0
 20
0
 30
0
  3
*Model_Space
  1

  0
ENDBLK
  5
21
330
1F
100
AcDbEntity
  8
0
100
AcDbBlockEnd
  0
BLOCK
  5
1C
330
1B
100
AcDbEntity
  8
0
100
AcDbBlockBegin
  2
*Paper_Space
 70
    0
 10
0
 20
0
 30
0
  3
*Paper_Space
  1

  0
ENDBLK
  5
1D
330
1F
100
AcDbEntity
  8
0
100
AcDbBlockEnd
  0
ENDSEC
  0
SECTION
  2
ENTITIES
  0
ARC
  5
52
100
AcDbEntity
  8
0
  6
ByLayer
 62
  256
370
   -1
100
AcDbCircle
 10
0
 20
20
 40
10
100
AcDbArc
 50
90
 51
270
  0
ARC
  5
53
100
AcDbEntity
  8
0
  6
ByLayer
 62
  256
370
   -1
100
AcDbCircle
 10
0
 20
20
 40
5
100
AcDbArc
 50
90
 51
270
  0
ARC
  5
54
100
AcDbEntity
  8
0
  6
ByLayer
 62
  256
370
   -1
100
AcDbCircle
 10
10
 20
30
 40
10
100
AcDbArc
 50
90
 51
180
  0
ARC
  5
55
100
AcDbEntity
  8
0
  6
ByLayer
 62
  256
370
   -1
100
AcDbCircle
 10
10
 20
10
 40
10
100
AcDbArc
 50
180
 51
270
  0
LINE
  5
56
100
AcDbEntity
  8
0
  6
ByLayer
 62
  256
370
   -1
100
AcDbLine
 10
10
 20
0
 11
70
 21
0
  0
ARC
  5
57
100
AcDbEntity
  8
0
  6
ByLayer
 62
  256
370
   -1
100
AcDbCircle
 10
70
 20
10
 40
10
100
AcDbArc
 50
270
 51
0
  0
LINE
  5
58
100
AcDbEntity
  8
0
  6
ByLayer
 62
  256
370
   -1
100
AcDbLine
 10
80
 20
10
 11
80
 21
30
  0
LINE
  5
59
100
AcDbEntity
  8
0
  6
ByLayer
 62
  256
370
   -1
100
AcDbLine
 10
70
 20
40
 11
10
 21
40
  0
ARC
  5
5A
100
AcDbEntity
  8
0
  6
ByLayer
 62
  256
370
   -1
100
AcDbCircle
 10
70
 20
30
 40
10
100
AcDbArc
 50
0
 51
90
  0
LINE
  5
5B
100
AcDbEntity
  8
0
  6
ByLayer
 62
  256
370
   -1
100
AcDbLine
 10
-1.77635683940025e-15
 20
24.99999999999999
 11
-1.77635683940025e-15
 21
15.00000000000001
  0
CIRCLE
  5
5C
100
AcDbEntity
  8
letras
  6
ByLayer
 62
  256
370
   -1
100
AcDbCircle
 10
150
 20
0
 40
30
  0
ARC
  5
5D
100
AcDbEntity
  8
letras
  6
ByLayer
 62
  256
370
   -1
100
AcDbCircle
 10
15
 20
25
 40
5
100
AcDbArc
 50
90
 51
180
  0
LINE
  5
5E
100
AcDbEntity
  8
letras
  6
ByLayer
 62
  256
370
   -1
100
AcDbLine
 10
15
 20
30
 11
65
 21
30
  0
ARC
  5
5F
100
AcDbEntity
  8
letras
  6
ByLayer
 62
  256
370
   -1
100
AcDbCircle
 10
65
 20
25
 40
5
100
AcDbArc
 50
0
 51
90
  0
LINE
  5
60
100
AcDbEntity
  8
letras
  6
ByLayer
 62
  256
370
   -1
100
AcDbLine
 10
10
 20
15
 11
10
 21
25
  0
ARC
  5
61
100
AcDbEntity
  8
letras
  6
ByLayer
 62
  256
370
   -1
100
AcDbCircle
 10
15
 20
15
 40
5
100
AcDbArc
 50
180
 51
270
  0
LINE
  5
62
100
AcDbEntity
  8
letras
  6
ByLayer
 62
  256
370
   -1
100
AcDbLine
 10
65
 20
10
 11
15
 21
10
  0
LINE
  5
63
100
AcDbEntity
  8
letras
  6
ByLayer
 62
  256
370
   -1
100
AcDbLine
 10
70
 20
25
 11
70
 21
15
  0
ARC
  5
64
100
AcDbEntity
  8
letras
  6
ByLayer
 62
  256
370
   -1
100
AcDbCircle
 10
65
 20
15
 40
5
100
AcDbArc
 50
270
 51
0
  0
ARC
  5
65
100
AcDbEntity
  8
0
  6
ByLayer
 62
  256
370
   -1
100
AcDbCircle
 10
150.6587779676918
 20
39.99457477695298
 40
14.92213259229596
100
AcDbArc
 50
348.3061745285199
 51
189.8064802842228
  0
ARC
  5
66
100
AcDbEntity
  8
0
  6
ByLayer
 62
  256
370
   -1
100
AcDbCircle
 10
150.6587779676918
 20
39.99457477695298
 40
7.95184584733817
100
AcDbArc
 50
353.3518174925017
 51
544.760837320241
  0
ARC
  5
67
100
AcDbEntity
  8
0
  6
ByLayer
 62
  256
370
   -1
100
AcDbCircle
 10
150
 20
0
 40
40
100
AcDbArc
 50
77.64730757863195
 51
100.4653472341107
  0
ARC
  5
68
100
AcDbEntity
  8
0
  6
ByLayer
 62
  256
370
   -1
100
AcDbCircle
 10
150
 20
0
 40
40
100
AcDbArc
 50
110.5566331620742
 51
67.5560216506684
  0
MTEXT
  5
69
100
AcDbEntity
  8
letras
  6
ByLayer
 62
  256
370
   -1
100
AcDbMText
 10
39.71397898361733
 20
19.67809769458517
 30
0
 40
7
 41
49.87500777777778
 71
    5
 72
    1
  1
NOMBRE
  7
romansi
210
0
220
0
230
1
 50
0
 73
    2
 44
1
  0
LINE
  5
6A
100
AcDbEntity
  8
GRABAR
  6
ByLayer
 62
  256
370
   -1
100
AcDbLine
 10
145.2190401663574
 20
8.562702137356794
 11
145.162621258766
 21
8.562702137356794
  0
ARC
  5
6B
100
AcDbEntity
  8
GRABAR
  6
ByLayer
 62
  256
370
   -1
100
AcDbCircle
 10
169.0600068054784
 20
-11.44097282466372
 40
9.711547866795694
100
AcDbArc
 50
93.83037664558258
 51
205.3585560524157
  0
ARC
  5
6C
100
AcDbEntity
  8
GRABAR
  6
ByLayer
 62
  256
370
   -1
100
AcDbCircle
 10
170.1153047434492
 20
2.42522452395788
 40
4.510615765707587
100
AcDbArc
 50
247.8032532675762
 51
18.92359264919024
  0
ARC
  5
6D
100
AcDbEntity
  8
GRABAR
  6
ByLayer
 62
  256
370
   -1
100
AcDbCircle
 10
175.6539121005226
 20
3.196201784942318
 40
1.44778485675229
100
AcDbArc
 50
30.40001762090573
 51
151.4538954172971
  0
ARC
  5
6E
100
AcDbEntity
  8
GRABAR
  6
ByLayer
 62
  256
370
   -1
100
AcDbCircle
 10
170.9874397719874
 20
2.701367306830704
 40
6.041219337332344
100
AcDbArc
 50
310.5551582977374
 51
11.72305557406872
  0
ARC
  5
6F
100
AcDbEntity
  8
GRABAR
  6
ByLayer
 62
  256
370
   -1
100
AcDbCircle
 10
170.3870047846515
 20
2.432199393693921
 40
6.259010685517781
100
AcDbArc
 50
256.515462912183
 51
316.3431399908836
  0
ARC
  5
70
100
AcDbEntity
  8
GRABAR
  6
ByLayer
 62
  256
370
   -1
100
AcDbCircle
 10
168.6225913410092
 20
-10.13778190235466
 40
6.490679659413775
100
AcDbArc
 50
87.30736940660147
 51
178.6735229673563
  0
ARC
  5
71
100
AcDbEntity
  8
GRABAR
  6
ByLayer
 62
  256
370
   -1
100
AcDbCircle
 10
190.2127324097467
 20
-7.147425838380272
 40
28.22234901955578
100
AcDbArc
 50
185.7756257925694
 51
206.2080982753414
  0
ARC
  5
72
100
AcDbEntity
  8
GRABAR
  6
ByLayer
 62
  256
370
   -1
100
AcDbCircle
 10
162.6734900094219
 20
-18.25410628668912
 40
2.600533592420931
100
AcDbArc
 50
234.9600729635308
 51
328.5398941800225
  0
ARC
  5
73
100
AcDbEntity
  8
GRABAR
  6
ByLayer
 62
  256
370
   -1
100
AcDbCircle
 10
157.9588638757805
 20
-32.67965267041295
 40
12.71135799662166
100
AcDbArc
 50
75.31896921884668
 51
105.539130452206
  0
LINE
  5
74
100
AcDbEntity
  8
GRABAR
  6
ByLayer
 62
  256
370
   -1
100
AcDbLine
 10
132.0190185752717
 20
2.339202735957642
 11
138.2795145326091
 21
19.00020004177485
  0
ARC
  5
75
100
AcDbEntity
  8
GRABAR
  6
ByLayer
 62
  256
370
   -1
100
AcDbCircle
 10
137.8696174596867
 20
0.1407958824198801
 40
6.25
100
AcDbArc
 50
159.4059097796912
 51
196.3999066556279
  0
LINE
  5
76
100
AcDbEntity
  8
GRABAR
  6
ByLayer
 62
  256
370
   -1
100
AcDbLine
 10
133.0760551043573
 20
-18.6553664581172
 11
134.4011681368117
 21
-17.72258924470121
  0
LINE
  5
77
100
AcDbEntity
  8
GRABAR
  6
ByLayer
 62
  256
370
   -1
100
AcDbLine
 10
135.6002345022916
 20
-14.28489548690304
 11
131.8739022439363
 21
-1.623828454831298
  0
ARC
  5
78
100
AcDbEntity
  8
GRABAR
  6
ByLayer
 62
  256
370
   -1
100
AcDbCircle
 10
132.6023768944164
 20
-15.16720765552866
 40
3.125
100
AcDbArc
 50
305.1425861127963
 51
16.39990665562795
  0
LINE
  5
79
100
AcDbEntity
  8
GRABAR
  6
ByLayer
 62
  256
370
   -1
100
AcDbLine
 10
138.1831513567402
 20
-17.5681941958441
 11
139.0418468119847
 21
-13.19293640007463
  0
ARC
  5
7A
100
AcDbEntity
  8
GRABAR
  6
ByLayer
 62
  256
370
   -1
100
AcDbCircle
 10
135.1166520414161
 20
-16.96635788162159
 40
3.125
100
AcDbArc
 50
270.7742201649281
 51
348.8961665633639
  0
LINE
  5
7B
100
AcDbEntity
  8
GRABAR
  6
ByLayer
 62
  256
370
   -1
100
AcDbLine
 10
133.7095002792304
 20
-20.11065876896161
 11
135.1588779157819
 21
-20.09107258468389
  0
LINE
  5
7C
100
AcDbEntity
  8
GRABAR
  6
ByLayer
 62
  256
370
   -1
100
AcDbLine
 10
133.0760551043573
 20
-19.4857158283492
 11
133.0760551043573
 21
-18.6553664581172
  0
ARC
  5
7D
100
AcDbEntity
  8
GRABAR
  6
ByLayer
 62
  256
370
   -1
100
AcDbCircle
 10
133.7010551043573
 20
-19.4857158283492
 40
0.625
100
AcDbArc
 50
180
 51
270.7742201649281
  0
LINE
  5
7E
100
AcDbEntity
  8
GRABAR
  6
ByLayer
 62
  256
370
   -1
100
AcDbLine
 10
148.3152266449274
 20
8.562702137356794
 11
145.2190401663574
 21
8.562702137356794
  0
ARC
  5
7F
100
AcDbEntity
  8
GRABAR
  6
ByLayer
 62
  256
370
   -1
100
AcDbCircle
 10
148.3152266449274
 20
9.187702137356794
 40
0.625
100
AcDbArc
 50
270
 51
310.8150838748812
  0
LINE
  5
80
100
AcDbEntity
  8
GRABAR
  6
ByLayer
 62
  256
370
   -1
100
AcDbLine
 10
150.4176988669886
 20
11.59140236480586
 11
149.9013002226796
 21
10.8303938363505
  0
LINE
  5
81
100
AcDbEntity
  8
GRABAR
  6
ByLayer
 62
  256
370
   -1
100
AcDbLine
 10
149.9013002226796
 20
10.8303938363505
 11
150.818552262973
 21
10.76368375612672
  0
LINE
  5
82
100
AcDbEntity
  8
GRABAR
  6
ByLayer
 62
  256
370
   -1
100
AcDbLine
 10
150.818552262973
 20
10.76368375612672
 11
150.4176988669886
 21
11.59140236480586
  0
ARC
  5
83
100
AcDbEntity
  8
GRABAR
  6
ByLayer
 62
  256
370
   -1
100
AcDbCircle
 10
147.4561484092452
 20
15.43367484873563
 40
5.754526607863619
100
AcDbArc
 50
265.7069869489379
 51
305.7539702138332
  0
LINE
  5
84
100
AcDbEntity
  8
GRABAR
  6
ByLayer
 62
  256
370
   -1
100
AcDbLine
 10
144.297086789749
 20
14.47453782313276
 11
146.172086789749
 21
15.72453782313276
  0
LINE
  5
85
100
AcDbEntity
  8
GRABAR
  6
ByLayer
 62
  256
370
   -1
100
AcDbLine
 10
144.297086789749
 20
14.47453782313276
 11
146.172086789749
 21
13.22453782313276
  0
ARC
  5
86
100
AcDbEntity
  8
GRABAR
  6
ByLayer
 62
  256
370
   -1
100
AcDbCircle
 10
145.234586789749
 20
14.47453782313276
 40
1.5625
100
AcDbArc
 50
306.869897645844
 51
53.13010235415599
  0
LINE
  5
87
100
AcDbEntity
  8
GRABAR
  6
ByLayer
 62
  256
370
   -1
100
AcDbLine
 10
138.2795145326091
 20
22.53551784889764
 11
139.1003247006754
 21
19.42309161860571
  0
ARC
  5
88
100
AcDbEntity
  8
GRABAR
  6
ByLayer
 62
  256
370
   -1
100
AcDbCircle
 10
148.7545914838216
 20
5.771167341844702
 40
5.740231718495203
100
AcDbArc
 50
103.642667067999
 51
153.6392797755573
  0
ARC
  5
89
100
AcDbEntity
  8
GRABAR
  6
ByLayer
 62
  256
370
   -1
100
AcDbCircle
 10
151.2439345013645
 20
5.468566856965666
 40
6.691826217061931
100
AcDbArc
 50
120.001798376737
 51
143.9726266148963
  0
ARC
  5
8A
100
AcDbEntity
  8
GRABAR
  6
ByLayer
 62
  256
370
   -1
100
AcDbCircle
 10
146.7592748647124
 20
7.45335889331885
 40
4.43159450580664
100
AcDbArc
 50
77.51811262771096
 51
174.7982582519056
  0
LINE
  5
8B
100
AcDbEntity
  8
GRABAR
  6
ByLayer
 62
  256
370
   -1
100
AcDbLine
 10
145.9531689088315
 20
15.17198555345938
 11
145.7849787618446
 21
14.48871308132509
  0
LINE
  5
8C
100
AcDbEntity
  8
GRABAR
  6
ByLayer
 62
  256
370
   -1
100
AcDbLine
 10
145.7849787618446
 20
14.48871308132509
 11
145.9952164455782
 21
13.78441684081746
  0
LINE
  5
8D
100
AcDbEntity
  8
GRABAR
  6
ByLayer
 62
  256
370
   -1
100
AcDbLine
 10
145.9952164455782
 20
13.78441684081746
 11
146.068799634885
 21
14.48871308132509
  0
LINE
  5
8E
100
AcDbEntity
  8
GRABAR
  6
ByLayer
 62
  256
370
   -1
100
AcDbLine
 10
146.068799634885
 20
14.48871308132509
 11
145.9531689088315
 21
15.17198555345938
  0
LINE
  5
8F
100
AcDbEntity
  8
GRABAR
  6
ByLayer
 62
  256
370
   -1
100
AcDbLine
 10
154.5535364459994
 20
-20.43292383311693
 11
142.8373932939296
 21
-20.20974549078237
  0
LINE
  5
90
100
AcDbEntity
  8
GRABAR
  6
ByLayer
 62
  256
370
   -1
100
AcDbLine
 10
139.0418468119847
 20
-13.19293640007463
 11
141.1077039421803
 21
-18.96674222549329
  0
ARC
  5
91
100
AcDbEntity
  8
GRABAR
  6
ByLayer
 62
  256
370
   -1
100
AcDbCircle
 10
142.8731032956574
 20
-18.3350855760841
 40
1.875
100
AcDbArc
 50
199.6871161981259
 51
268.9087167484262
  0
ARC
  5
92
100
AcDbEntity
  8
GRABAR
  6
ByLayer
 62
  256
370
   -1
100
AcDbCircle
 10
156.4081509915336
 20
-12.86198927933081
 40
4.745726695225183
100
AcDbArc
 50
236.4735824187038
 51
324.7605320404885
  0
ARC
  5
93
100
AcDbEntity
  8
GRABAR
  6
ByLayer
 62
  256
370
   -1
100
AcDbCircle
 10
133.4241506088333
 20
-8.3702114097877
 40
20.60376796594256
100
AcDbArc
 50
342.1645216696357
 51
55.26898601093529
  0
ARC
  5
94
100
AcDbEntity
  8
GRABAR
  6
ByLayer
 62
  256
370
   -1
100
AcDbCircle
 10
154.8225871768983
 20
-15.25511676201909
 40
1.875
100
AcDbArc
 50
162.1645216696361
 51
236.4735824187038
  0
ARC
  5
95
100
AcDbEntity
  8
GRABAR
  6
ByLayer
 62
  256
370
   -1
100
AcDbCircle
 10
140.7406453001251
 20
20.94245928210334
 40
2.23587337876304
100
AcDbArc
 50
222.8077866804235
 51
274.8192847375084
  0
ARC
  5
96
100
AcDbEntity
  8
GRABAR
  6
ByLayer
 62
  256
370
   -1
100
AcDbCircle
 10
141.5525126951839
 20
5.178823702534928
 40
13.55004364561135
100
AcDbArc
 50
77.33417829345336
 51
92.63959419647492
  0
LINE
  5
97
100
AcDbEntity
  8
GRABAR
  6
ByLayer
 62
  256
370
   -1
100
AcDbLine
 10
138.2795145326091
 20
19.00020004177485
 11
138.2795145326091
 21
24.27132755934245
  0
ARC
  5
98
100
AcDbEntity
  8
GRABAR
  6
ByLayer
 62
  256
370
   -1
100
AcDbCircle
 10
138.4670145326091
 20
24.27132755934245
 40
0.1875
100
AcDbArc
 50
42.38424512457986
 51
180
  0
LINE
  5
99
100
AcDbEntity
  8
GRABAR
  6
ByLayer
 62
  256
370
   -1
100
AcDbLine
 10
143.1252832409743
 20
23.67348214465251
 11
145.4129477931034
 21
18.24661696393672
  0
LINE
  5
9A
100
AcDbEntity
  8
GRABAR
  6
ByLayer
 62
  256
370
   -1
100
AcDbLine
 10
142.0512765707574
 20
20.62204042536591
 11
142.7700962811258
 21
23.64403795580584
  0
ARC
  5
9B
100
AcDbEntity
  8
GRABAR
  6
ByLayer
 62
  256
370
   -1
100
AcDbCircle
 10
142.9525070101614
 20
23.60064929446752
 40
0.1875
100
AcDbArc
 50
22.85758254381026
 51
166.6201256062632
  0
ARC
  5
9C
100
AcDbEntity
  8
GRABAR
  6
ByLayer
 62
  256
370
   -1
100
AcDbCircle
 10
146.432912544664
 20
15.1827964568845
 40
2.5
100
AcDbArc
 50
22.83365417791763
 51
69.1455419604217
  0
LINE
  5
9D
100
AcDbEntity
  8
GRABAR
  6
ByLayer
 62
  256
370
   -1
100
AcDbLine
 10
150.7551618918025
 20
10.46909838160413
 11
148.7237390638937
 21
8.714687757501068
  0
LINE
  5
9E
100
AcDbEntity
  8
GRABAR
  6
ByLayer
 62
  256
370
   -1
100
AcDbLine
 10
148.7370009825092
 20
16.15293895702983
 11
150.8891696441985
 21
11.04153838551777
  0
ARC
  5
9F
100
AcDbEntity
  8
GRABAR
  6
ByLayer
 62
  256
370
   -1
100
AcDbCircle
 10
150.4283519566295
 20
10.84750988548872
 40
0.5
100
AcDbArc
 50
310.8150838748816
 51
22.83365417791746
  0
LINE
  5
A0
100
AcDbEntity
  8
GRABAR
  6
ByLayer
 62
  256
370
   -1
100
AcDbLine
 10
142.4815123652761
 20
22.43079926960503
 11
142.6369804479782
 21
20.28806962081607
  0
ARC
  5
A1
100
AcDbEntity
  8
GRABAR
  6
ByLayer
 62
  256
370
   -1
100
AcDbCircle
 10
145.4085667478329
 20
21.76559713449684
 40
3.140824441325149
100
AcDbArc
 50
208.0619947378786
 51
244.8507225308007
  0
LINE
  5
A2
100
AcDbEntity
  8
GRABAR
  6
ByLayer
 62
  256
370
   -1
100
AcDbLine
 10
138.6055096692279
 20
24.39772117916932
 11
142.0512765707574
 21
20.62204042536591
  0
LINE
  5
A3
100
AcDbEntity
  8
GRABAR
  6
ByLayer
 62
  256
370
   -1
100
AcDbLine
 10
145.4129477931034
 20
18.24661696393672
 11
147.322900863644
 21
17.51901579420696
  0
LINE
  5
A4
100
AcDbEntity
  8
GRABAR
  6
ByLayer
 62
  256
370
   -1
100
AcDbLine
 10
142.0512765707574
 20
20.62204042536591
 11
143.5828918462054
 21
18.94378113418351
  0
LINE
  5
A5
100
AcDbEntity
  8
GRABAR
  6
ByLayer
 62
  256
370
   -1
100
AcDbLine
 10
143.5828918462054
 20
18.94378113418351
 11
145.4129477931034
 21
18.24661696393672
  0
LINE
  5
A6
100
AcDbEntity
  8
CORTAR
  6
ByLayer
 62
  256
370
   -1
100
AcDbLine
 10
72.59921133556806
 20
28.68113032666815
 11
72.26932700950563
 21
28.68113032666815
  0
LINE
  5
A7
100
AcDbEntity
  8
CORTAR
  6
ByLayer
 62
  256
370
   -1
100
AcDbLine
 10
72.26932700950563
 20
28.68113032666815
 11
72.41054656051024
 21
29.75241721518071
  0
LINE
  5
A8
100
AcDbEntity
  8
CORTAR
  6
ByLayer
 62
  256
370
   -1
100
AcDbLine
 10
72.41054656051024
 20
29.75241721518071
 11
69.70572743361795
 21
29.02684604022487
  0
LINE
  5
A9
100
AcDbEntity
  8
CORTAR
  6
ByLayer
 62
  256
370
   -1
100
AcDbLine
 10
69.70572743361795
 20
29.02684604022487
 11
69.93993078755939
 21
29.8993683392224
  0
LINE
  5
AA
100
AcDbEntity
  8
CORTAR
  6
ByLayer
 62
  256
370
   -1
100
AcDbLine
 10
69.93993078755939
 20
29.8993683392224
 11
67.51523724087154
 21
31.30918068549733
  0
LINE
  5
AB
100
AcDbEntity
  8
CORTAR
  6
ByLayer
 62
  256
370
   -1
100
AcDbLine
 10
67.51523724087154
 20
31.30918068549733
 11
68.19029396693806
 21
31.98882963419013
  0
LINE
  5
AC
100
AcDbEntity
  8
CORTAR
  6
ByLayer
 62
  256
370
   -1
100
AcDbLine
 10
68.19029396693806
 20
31.98882963419013
 11
67.56410760412361
 21
33.04343844957513
  0
LINE
  5
AD
100
AcDbEntity
  8
CORTAR
  6
ByLayer
 62
  256
370
   -1
100
AcDbLine
 10
67.56410760412361
 20
33.04343844957513
 11
68.79790727326925
 21
33.04343844957513
  0
LINE
  5
AE
100
AcDbEntity
  8
CORTAR
  6
ByLayer
 62
  256
370
   -1
100
AcDbLine
 10
68.79790727326925
 20
33.04343844957513
 11
69.06239383321299
 21
33.98948485529191
  0
LINE
  5
AF
100
AcDbEntity
  8
CORTAR
  6
ByLayer
 62
  256
370
   -1
100
AcDbLine
 10
69.06239383321299
 20
33.98948485529191
 11
71.42125130327948
 21
32.59012861913904
  0
LINE
  5
B0
100
AcDbEntity
  8
CORTAR
  6
ByLayer
 62
  256
370
   -1
100
AcDbLine
 10
71.42125130327948
 20
32.59012861913904
 11
70.19098719421108
 21
36.6067581100262
  0
LINE
  5
B1
100
AcDbEntity
  8
CORTAR
  6
ByLayer
 62
  256
370
   -1
100
AcDbLine
 10
70.19098719421108
 20
36.6067581100262
 11
71.36549762985358
 21
35.93491880733358
  0
LINE
  5
B2
100
AcDbEntity
  8
CORTAR
  6
ByLayer
 62
  256
370
   -1
100
AcDbLine
 10
71.36549762985358
 20
35.93491880733358
 11
72.59921133556806
 21
38.11330792496411
  0
LINE
  5
B3
100
AcDbEntity
  8
CORTAR
  6
ByLayer
 62
  256
370
   -1
100
AcDbLine
 10
72.59921133556806
 20
28.68113032666815
 11
72.92909566163048
 21
28.68113032666815
  0
LINE
  5
B4
100
AcDbEntity
  8
CORTAR
  6
ByLayer
 62
  256
370
   -1
100
AcDbLine
 10
72.92909566163048
 20
28.68113032666815
 11
72.78787611062587
 21
29.75241721518071
  0
LINE
  5
B5
100
AcDbEntity
  8
CORTAR
  6
ByLayer
 62
  256
370
   -1
100
AcDbLine
 10
72.78787611062587
 20
29.75241721518071
 11
75.49269523751819
 21
29.02684604022487
  0
LINE
  5
B6
100
AcDbEntity
  8
CORTAR
  6
ByLayer
 62
  256
370
   -1
100
AcDbLine
 10
75.49269523751819
 20
29.02684604022487
 11
75.25849188357675
 21
29.89936833922238
  0
LINE
  5
B7
100
AcDbEntity
  8
CORTAR
  6
ByLayer
 62
  256
370
   -1
100
AcDbLine
 10
75.25849188357675
 20
29.89936833922238
 11
77.6831854302646
 21
31.30918068549733
  0
LINE
  5
B8
100
AcDbEntity
  8
CORTAR
  6
ByLayer
 62
  256
370
   -1
100
AcDbLine
 10
77.6831854302646
 20
31.30918068549733
 11
77.00812870419809
 21
31.98882963419015
  0
LINE
  5
B9
100
AcDbEntity
  8
CORTAR
  6
ByLayer
 62
  256
370
   -1
100
AcDbLine
 10
77.00812870419809
 20
31.98882963419015
 11
77.63431506701254
 21
33.04343844957513
  0
LINE
  5
BA
100
AcDbEntity
  8
CORTAR
  6
ByLayer
 62
  256
370
   -1
100
AcDbLine
 10
77.63431506701254
 20
33.04343844957513
 11
76.40051539786687
 21
33.04343844957513
  0
LINE
  5
BB
100
AcDbEntity
  8
CORTAR
  6
ByLayer
 62
  256
370
   -1
100
AcDbLine
 10
76.40051539786687
 20
33.04343844957513
 11
76.13602883792312
 21
33.98948485529191
  0
LINE
  5
BC
100
AcDbEntity
  8
CORTAR
  6
ByLayer
 62
  256
370
   -1
100
AcDbLine
 10
76.13602883792312
 20
33.98948485529191
 11
73.77717136785664
 21
32.59012861913904
  0
LINE
  5
BD
100
AcDbEntity
  8
CORTAR
  6
ByLayer
 62
  256
370
   -1
100
AcDbLine
 10
73.77717136785664
 20
32.59012861913904
 11
75.00743547692504
 21
36.6067581100262
  0
LINE
  5
BE
100
AcDbEntity
  8
CORTAR
  6
ByLayer
 62
  256
370
   -1
100
AcDbLine
 10
75.00743547692504
 20
36.6067581100262
 11
73.83292504128254
 21
35.93491880733358
  0
LINE
  5
BF
100
AcDbEntity
  8
CORTAR
  6
ByLayer
 62
  256
370
   -1
100
AcDbLine
 10
73.83292504128254
 20
35.93491880733358
 11
72.59921133556806
 21
38.11330792496411
  0
ENDSEC
  0
SECTION
  2
OBJECTS
  0
DICTIONARY
  5
C
330
0
100
AcDbDictionary
281
    1
  3
ACAD_GROUP
350
D
  0
DICTIONARY
  5
D
330
C
100
AcDbDictionary
281
    1
  0
ENDSEC
  0
EOF
