999
dxfrw 0.6.3
  0
SECTION
  2
HEADER
  9
$ACADVER
  1
AC1021
  9
$DWGCODEPAGE
  3
ANSI_1252
  9
$INSBASE
 10
0
 20
0
 30
0
  9
$EXTMIN
 10
267.1604907190041
 20
434.7331567641149
 30
0
  9
$EXTMAX
 10
993.7051571131317
 20
1159.748635779355
 30
0
  9
$LIMMIN
 10
0
 20
0
  9
$LIMMAX
 10
420
 20
297
  9
$ORTHOMODE
 70
    0
  9
$REGENMODE
 70
    1
  9
$FILLMODE
 70
    1
  9
$QTEXTMODE
 70
    0
  9
$MIRRTEXT
 70
    0
  9
$LTSCALE
 40
1
  9
$ATTMODE
 70
    0
  9
$TEXTSIZE
 40
2.5
  9
$TRACEWID
 40
15.68
  9
$TEXTSTYLE
  7
STANDARD
  9
$CLAYER
  8
GRABAR
  9
$CELTYPE
  6
BYLAYER
  9
$CECOLOR
 62
  256
  9
$CELTSCALE
 40
1
  9
$DISPSILH
 70
    0
  9
$DIMSCALE
 40
2.5
  9
$DIMASZ
 40
2.5
  9
$DIMEXO
 40
0.625
  9
$DIMDLI
 40
3.75
  9
$DIMRND
 40
0
  9
$DIMDLE
 40
0
  9
$DIMEXE
 40
1.25
  9
$DIMTP
 40
0
  9
$DIMTM
 40
0
  9
$DIMTXT
 40
2.5
  9
$DIMCEN
 40
2.5
  9
$DIMTSZ
 40
0
  9
$DIMTOL
 70
    0
  9
$DIMLIM
 70
    0
  9
$DIMTIH
 70
    0
  9
$DIMTOH
 70
    0
  9
$DIMSE1
 70
    0
  9
$DIMSE2
 70
    0
  9
$DIMTAD
 70
    1
  9
$DIMZIN
 70
    8
  9
$DIMBLK
  1

  9
$DIMASO
 70
    1
  9
$DIMSHO
 70
    1
  9
$DIMPOST
  1

  9
$DIMAPOST
  1

  9
$DIMALT
 70
    0
  9
$DIMALTD
 70
    3
  9
$DIMALTF
 40
0.03937
  9
$DIMLFAC
 40
1
  9
$DIMTOFL
 70
    1
  9
$DIMTVP
 40
0
  9
$DIMTIX
 70
    0
  9
$DIMSOXD
 70
    0
  9
$DIMSAH
 70
    0
  9
$DIMBLK1
  1

  9
$DIMBLK2
  1

  9
$DIMSTYLE
  2
STANDARD
  9
$DIMCLRD
 70
    0
  9
$DIMCLRE
 70
    0
  9
$DIMCLRT
 70
    0
  9
$DIMTFAC
 40
1
  9
$DIMGAP
 40
0.625
  9
$DIMJUST
 70
    0
  9
$DIMSD1
 70
    0
  9
$DIMSD2
 70
    0
  9
$DIMTOLJ
 70
    0
  9
$DIMTZIN
 70
    8
  9
$DIMALTZ
 70
    0
  9
$DIMALTTZ
 70
    0
  9
$DIMUPT
 70
    0
  9
$DIMDEC
 70
    2
  9
$DIMTDEC
 70
    2
  9
$DIMALTU
 70
    2
  9
$DIMALTTD
 70
    3
  9
$DIMTXSTY
  7
STANDARD
  9
$DIMAUNIT
 70
    0
  9
$DIMADEC
 70
    0
  9
$DIMALTRND
 40
0
  9
$DIMAZIN
 70
    0
  9
$DIMDSEP
 70
   44
  9
$DIMATFIT
 70
    3
  9
$DIMFRAC
 70
    0
  9
$DIMLDRBLK
  1
STANDARD
  9
$DIMLUNIT
 70
    2
  9
$DIMLWD
 70
   -2
  9
$DIMLWE
 70
   -2
  9
$DIMTMOVE
 70
    0
  9
$DIMFXL
 40
1
  9
$DIMFXLON
 70
    0
  9
$DIMJOGANG
 40
0.7854
  9
$DIMTFILL
 70
    0
  9
$DIMTFILLCLR
 70
    0
  9
$DIMARCSYM
 70
    0
  9
$DIMLTYPE
  6

  9
$DIMLTEX1
  6

  9
$DIMLTEX2
  6

  9
$LUNITS
 70
    2
  9
$LUPREC
 70
    4
  9
$SKETCHINC
 40
1
  9
$FILLETRAD
 40
0
  9
$AUNITS
 70
    0
  9
$AUPREC
 70
    2
  9
$MENU
  1
.
  9
$ELEVATION
 40
0
  9
$PELEVATION
 40
0
  9
$THICKNESS
 40
0
  9
$LIMCHECK
 70
    0
  9
$CHAMFERA
 40
0
  9
$CHAMFERB
 40
0
  9
$CHAMFERC
 40
0
  9
$CHAMFERD
 40
0
  9
$SKPOLY
 70
    0
  9
$USRTIMER
 70
    1
  9
$ANGBASE
 50
0
  9
$ANGDIR
 70
    0
  9
$PDMODE
 70
   34
  9
$PDSIZE
 40
0
  9
$PLINEWID
 40
0
  9
$SPLFRAME
 70
    0
  9
$SPLINETYPE
 70
    2
  9
$SPLINESEGS
 70
    8
  9
$HANDSEED
  5
20000
  9
$SURFTAB1
 70
    6
  9
$SURFTAB2
 70
    6
  9
$SURFTYPE
 70
    6
  9
$SURFU
 70
    6
  9
$SURFV
 70
    6
  9
$UCSBASE
  2

  9
$UCSNAME
  2

  9
$UCSORG
 10
0
 20
0
 30
0
  9
$UCSXDIR
 10
1
 20
0
 30
0
  9
$UCSYDIR
 10
0
 20
1
 30
0
  9
$UCSORTHOREF
  2

  9
$UCSORTHOVIEW
 70
    0
  9
$UCSORGTOP
 10
0
 20
0
 30
0
  9
$UCSORGBOTTOM
 10
0
 20
0
 30
0
  9
$UCSORGLEFT
 10
0
 20
0
 30
0
  9
$UCSORGRIGHT
 10
0
 20
0
 30
0
  9
$UCSORGFRONT
 10
0
 20
0
 30
0
  9
$UCSORGBACK
 10
0
 20
0
 30
0
  9
$PUCSBASE
  2

  9
$PUCSNAME
  2

  9
$PUCSORG
 10
0
 20
0
 30
0
  9
$PUCSXDIR
 10
1
 20
0
 30
0
  9
$PUCSYDIR
 10
0
 20
1
 30
0
  9
$PUCSORTHOREF
  2

  9
$PUCSORTHOVIEW
 70
    0
  9
$PUCSORGTOP
 10
0
 20
0
 30
0
  9
$PUCSORGBOTTOM
 10
0
 20
0
 30
0
  9
$PUCSORGLEFT
 10
0
 20
0
 30
0
  9
$PUCSORGRIGHT
 10
0
 20
0
 30
0
  9
$PUCSORGFRONT
 10
0
 20
0
 30
0
  9
$PUCSORGBACK
 10
0
 20
0
 30
0
  9
$USERI1
 70
    0
  9
$USERI2
 70
    0
  9
$USERI3
 70
    0
  9
$USERI4
 70
    0
  9
$USERI5
 70
    0
  9
$USERR1
 40
0
  9
$USERR2
 40
0
  9
$USERR3
 40
0
  9
$USERR4
 40
0
  9
$USERR5
 40
0
  9
$WORLDVIEW
 70
    1
  9
$SHADEDGE
 70
    3
  9
$SHADEDIF
 70
   70
  9
$TILEMODE
 70
    1
  9
$MAXACTVP
 70
   64
  9
$PINSBASE
 10
0
 20
0
 30
0
  9
$PLIMCHECK
 70
    0
  9
$PEXTMIN
 10
0
 20
0
 30
0
  9
$PEXTMAX
 10
0
 20
0
 30
0
  9
$SNAPSTYLE
 70
    0
  9
$PLIMMIN
 10
0
 20
0
  9
$PLIMMAX
 10
210
 20
297
  9
$UNITMODE
 70
    0
  9
$VISRETAIN
 70
    1
  9
$PLINEGEN
 70
    0
  9
$PSLTSCALE
 70
    1
  9
$TREEDEPTH
 70
 3020
  9
$CMLSTYLE
  2
Standard
  9
$CMLJUST
 70
    0
  9
$CMLSCALE
 40
20
  9
$PROXYGRAPHICS
 70
    1
  9
$MEASUREMENT
 70
    1
  9
$CELWEIGHT
370
   -1
  9
$ENDCAPS
280
    0
  9
$JOINSTYLE
280
    0
  9
$LWDISPLAY
290
    0
  9
$INSUNITS
 70
    0
  9
$HYPERLINKBASE
  1

  9
$STYLESHEET
  1

  9
$XEDIT
290
    1
  9
$CEPSNTYPE
380
    0
  9
$PSTYLEMODE
290
    1
  9
$EXTNAMES
290
    1
  9
$PSVPSCALE
 40
1
  9
$OLESTARTUP
290
    0
  9
$SORTENTS
280
  127
  9
$INDEXCTL
280
    0
  9
$HIDETEXT
280
    1
  9
$XCLIPFRAME
290
    0
  9
$HALOGAP
280
    0
  9
$OBSCOLOR
 70
  257
  9
$OBSLTYPE
280
    0
  9
$INTERSECTIONDISPLAY
280
    0
  9
$INTERSECTIONCOLOR
 70
  257
  9
$DIMASSOC
280
    1
  9
$PROJECTNAME
  1

  9
$CAMERADISPLAY
290
    0
  9
$LENSLENGTH
 40
50
  9
$CAMERAHEIGHT
 40
0
  9
$STEPSPERSEC
 40
2
  9
$STEPSIZE
 40
50
  9
$3DDWFPREC
 40
2
  9
$PSOLWIDTH
 40
5
  9
$PSOLHEIGHT
 40
80
  9
$LOFTANG1
 40
1.570796326794897
  9
$LOFTANG2
 40
1.570796326794897
  9
$LOFTMAG1
 40
0
  9
$LOFTMAG2
 40
0
  9
$LOFTPARAM
 70
    7
  9
$LOFTNORMALS
280
    1
  9
$LATITUDE
 40
1
  9
$LONGITUDE
 40
1
  9
$NORTHDIRECTION
 40
0
  9
$TIMEZONE
 70
-8000
  9
$LIGHTGLYPHDISPLAY
280
    1
  9
$TILEMODELIGHTSYNCH
280
    1
  9
$SOLIDHIST
280
    1
  9
$SHOWHIST
280
    1
  9
$DWFFRAME
280
    2
  9
$DGNFRAME
280
    0
  9
$REALWORLDSCALE
290
    1
  9
$INTERFERECOLOR
 62
    1
  9
$CSHADOW
280
    0
  9
$SHADOWPLANELOCATION
 40
0
  0
ENDSEC
  0
SECTION
  2
CLASSES
  0
ENDSEC
  0
SECTION
  2
TABLES
  0
TABLE
  2
VPORT
  5
8
330
0
100
AcDbSymbolTable
 70
    1
  0
VPORT
  5
31
330
2
100
AcDbSymbolTableRecord
100
AcDbViewportTableRecord
  2
*ACTIVE
 70
    0
 10
0
 20
0
 11
1
 21
1
 12
1045.736854442083
 22
944.4310966680066
 13
0
 23
0
 14
10
 24
10
 15
10
 25
10
 16
0
 26
0
 36
1
 17
0
 27
0
 37
0
 40
1644.856927299527
 41
2.144370860927152
 42
50
 43
0
 44
0
 50
0
 51
0
 71
    0
 72
  100
 73
    1
 74
    3
 75
    0
 76
    1
 77
    0
 78
    0
281
    0
 65
    1
110
0
120
0
130
0
111
1
121
0
131
0
112
0
122
1
132
0
 79
    0
146
0
348
10020
 60
    7
 61
    5
292
1
282
    1
141
0
142
0
 63
  250
421
3358443
  0
ENDTAB
  0
TABLE
  2
LTYPE
  5
5
330
0
100
AcDbSymbolTable
 70
    4
  0
LTYPE
  5
14
330
5
100
AcDbSymbolTableRecord
100
AcDbLinetypeTableRecord
  2
ByBlock
 70
    0
  3

 72
   65
 73
    0
 40
0
  0
LTYPE
  5
15
330
5
100
AcDbSymbolTableRecord
100
AcDbLinetypeTableRecord
  2
ByLayer
 70
    0
  3

 72
   65
 73
    0
 40
0
  0
LTYPE
  5
16
330
5
100
AcDbSymbolTableRecord
100
AcDbLinetypeTableRecord
  2
Continuous
 70
    0
  3
Solid line
 72
   65
 73
    0
 40
0
  0
LTYPE
  5
32
330
5
100
AcDbSymbolTableRecord
100
AcDbLinetypeTableRecord
  2
DOT
 70
    0
  3
Dot . . . . . . . . . . . . . . . . . . . . . .
 72
   65
 73
    2
 40
6.35
 49
0
 74
    0
 49
-6.35
 74
    0
  0
LTYPE
  5
33
330
5
100
AcDbSymbolTableRecord
100
AcDbLinetypeTableRecord
  2
DOTTINY
 70
    0
  3
Dot (.15x) .....................................
 72
   65
 73
    2
 40
0.9525
 49
0
 74
    0
 49
-0.9525
 74
    0
  0
LTYPE
  5
34
330
5
100
AcDbSymbolTableRecord
100
AcDbLinetypeTableRecord
  2
DOT2
 70
    0
  3
Dot (.5x) .....................................
 72
   65
 73
    2
 40
3.175
 49
0
 74
    0
 49
-3.175
 74
    0
  0
LTYPE
  5
35
330
5
100
AcDbSymbolTableRecord
100
AcDbLinetypeTableRecord
  2
DOTX2
 70
    0
  3
Dot (2x) .  .  .  .  .  .  .  .  .  .  .  .  .
 72
   65
 73
    2
 40
12.7
 49
0
 74
    0
 49
-12.7
 74
    0
  0
LTYPE
  5
36
330
5
100
AcDbSymbolTableRecord
100
AcDbLinetypeTableRecord
  2
DASHED
 70
    0
  3
Dashed _ _ _ _ _ _ _ _ _ _ _ _ _ _ _ _ _
 72
   65
 73
    2
 40
19.05
 49
12.7
 74
    0
 49
-6.35
 74
    0
  0
LTYPE
  5
37
330
5
100
AcDbSymbolTableRecord
100
AcDbLinetypeTableRecord
  2
DASHEDTINY
 70
    0
  3
Dashed (.15x) _ _ _ _ _ _ _ _ _ _ _ _ _ _ _ _ _
 72
   65
 73
    2
 40
2.8575
 49
1.905
 74
    0
 49
-0.9525
 74
    0
  0
LTYPE
  5
38
330
5
100
AcDbSymbolTableRecord
100
AcDbLinetypeTableRecord
  2
DASHED2
 70
    0
  3
Dashed (.5x) _ _ _ _ _ _ _ _ _ _ _ _ _ _ _ _ _
 72
   65
 73
    2
 40
9.524999999999999
 49
6.35
 74
    0
 49
-3.175
 74
    0
  0
LTYPE
  5
39
330
5
100
AcDbSymbolTableRecord
100
AcDbLinetypeTableRecord
  2
DASHEDX2
 70
    0
  3
Dashed (2x) ____  ____  ____  ____  ____  ___
 72
   65
 73
    2
 40
38.09999999999999
 49
25.4
 74
    0
 49
-12.7
 74
    0
  0
LTYPE
  5
3A
330
5
100
AcDbSymbolTableRecord
100
AcDbLinetypeTableRecord
  2
DASHDOT
 70
    0
  3
Dash dot __ . __ . __ . __ . __ . __ . __ . __
 72
   65
 73
    4
 40
25.4
 49
12.7
 74
    0
 49
-6.35
 74
    0
 49
0
 74
    0
 49
-6.35
 74
    0
  0
LTYPE
  5
3B
330
5
100
AcDbSymbolTableRecord
100
AcDbLinetypeTableRecord
  2
DASHDOTTINY
 70
    0
  3
Dash dot (.15x) _._._._._._._._._._._._._._._.
 72
   65
 73
    4
 40
3.81
 49
1.905
 74
    0
 49
-0.9525
 74
    0
 49
0
 74
    0
 49
-0.9525
 74
    0
  0
LTYPE
  5
3C
330
5
100
AcDbSymbolTableRecord
100
AcDbLinetypeTableRecord
  2
DASHDOT2
 70
    0
  3
Dash dot (.5x) _._._._._._._._._._._._._._._.
 72
   65
 73
    4
 40
12.7
 49
6.35
 74
    0
 49
-3.175
 74
    0
 49
0
 74
    0
 49
-3.175
 74
    0
  0
LTYPE
  5
3D
330
5
100
AcDbSymbolTableRecord
100
AcDbLinetypeTableRecord
  2
DASHDOTX2
 70
    0
  3
Dash dot (2x) ____  .  ____  .  ____  .  ___
 72
   65
 73
    4
 40
50.8
 49
25.4
 74
    0
 49
-12.7
 74
    0
 49
0
 74
    0
 49
-12.7
 74
    0
  0
LTYPE
  5
3E
330
5
100
AcDbSymbolTableRecord
100
AcDbLinetypeTableRecord
  2
DIVIDE
 70
    0
  3
Divide ____ . . ____ . . ____ . . ____ . . ____
 72
   65
 73
    6
 40
31.75
 49
12.7
 74
    0
 49
-6.35
 74
    0
 49
0
 74
    0
 49
-6.35
 74
    0
 49
0
 74
    0
 49
-6.35
 74
    0
  0
LTYPE
  5
3F
330
5
100
AcDbSymbolTableRecord
100
AcDbLinetypeTableRecord
  2
DIVIDETINY
 70
    0
  3
Divide (.15x) __..__..__..__..__..__..__..__.._
 72
   65
 73
    6
 40
4.7625
 49
1.905
 74
    0
 49
-0.9525
 74
    0
 49
0
 74
    0
 49
-0.9525
 74
    0
 49
0
 74
    0
 49
-0.9525
 74
    0
  0
LTYPE
  5
40
330
5
100
AcDbSymbolTableRecord
100
AcDbLinetypeTableRecord
  2
DIVIDE2
 70
    0
  3
Divide (.5x) __..__..__..__..__..__..__..__.._
 72
   65
 73
    6
 40
15.875
 49
6.35
 74
    0
 49
-3.175
 74
    0
 49
0
 74
    0
 49
-3.175
 74
    0
 49
0
 74
    0
 49
-3.175
 74
    0
  0
LTYPE
  5
41
330
5
100
AcDbSymbolTableRecord
100
AcDbLinetypeTableRecord
  2
DIVIDEX2
 70
    0
  3
Divide (2x) ________  .  .  ________  .  .  _
 72
   65
 73
    6
 40
63.5
 49
25.4
 74
    0
 49
-12.7
 74
    0
 49
0
 74
    0
 49
-12.7
 74
    0
 49
0
 74
    0
 49
-12.7
 74
    0
  0
LTYPE
  5
42
330
5
100
AcDbSymbolTableRecord
100
AcDbLinetypeTableRecord
  2
BORDER
 70
    0
  3
Border __ __ . __ __ . __ __ . __ __ . __ __ .
 72
   65
 73
    6
 40
44.45
 49
12.7
 74
    0
 49
-6.35
 74
    0
 49
12.7
 74
    0
 49
-6.35
 74
    0
 49
0
 74
    0
 49
-6.35
 74
    0
  0
LTYPE
  5
43
330
5
100
AcDbSymbolTableRecord
100
AcDbLinetypeTableRecord
  2
BORDERTINY
 70
    0
  3
Border (.15x) __.__.__.__.__.__.__.__.__.__.__.
 72
   65
 73
    6
 40
6.6675
 49
1.905
 74
    0
 49
-0.9525
 74
    0
 49
1.905
 74
    0
 49
-0.9525
 74
    0
 49
0
 74
    0
 49
-0.9525
 74
    0
  0
LTYPE
  5
44
330
5
100
AcDbSymbolTableRecord
100
AcDbLinetypeTableRecord
  2
BORDER2
 70
    0
  3
Border (.5x) __.__.__.__.__.__.__.__.__.__.__.
 72
   65
 73
    6
 40
22.225
 49
6.35
 74
    0
 49
-3.175
 74
    0
 49
6.35
 74
    0
 49
-3.175
 74
    0
 49
0
 74
    0
 49
-3.175
 74
    0
  0
LTYPE
  5
45
330
5
100
AcDbSymbolTableRecord
100
AcDbLinetypeTableRecord
  2
BORDERX2
 70
    0
  3
Border (2x) ____  ____  .  ____  ____  .  ___
 72
   65
 73
    6
 40
88.89999999999999
 49
25.4
 74
    0
 49
-12.7
 74
    0
 49
25.4
 74
    0
 49
-12.7
 74
    0
 49
0
 74
    0
 49
-12.7
 74
    0
  0
LTYPE
  5
46
330
5
100
AcDbSymbolTableRecord
100
AcDbLinetypeTableRecord
  2
CENTER
 70
    0
  3
Center ____ _ ____ _ ____ _ ____ _ ____ _ ____
 72
   65
 73
    4
 40
50.8
 49
31.75
 74
    0
 49
-6.35
 74
    0
 49
6.35
 74
    0
 49
-6.35
 74
    0
  0
LTYPE
  5
47
330
5
100
AcDbSymbolTableRecord
100
AcDbLinetypeTableRecord
  2
CENTERTINY
 70
    0
  3
Center (.15x) ___ _ ___ _ ___ _ ___ _ ___ _ ___
 72
   65
 73
    4
 40
7.619999999999999
 49
4.7625
 74
    0
 49
-0.9525
 74
    0
 49
0.9525
 74
    0
 49
-0.9525
 74
    0
  0
LTYPE
  5
48
330
5
100
AcDbSymbolTableRecord
100
AcDbLinetypeTableRecord
  2
CENTER2
 70
    0
  3
Center (.5x) ___ _ ___ _ ___ _ ___ _ ___ _ ___
 72
   65
 73
    4
 40
28.575
 49
19.05
 74
    0
 49
-3.175
 74
    0
 49
3.175
 74
    0
 49
-3.175
 74
    0
  0
LTYPE
  5
49
330
5
100
AcDbSymbolTableRecord
100
AcDbLinetypeTableRecord
  2
CENTERX2
 70
    0
  3
Center (2x) ________  __  ________  __  _____
 72
   65
 73
    4
 40
101.6
 49
63.5
 74
    0
 49
-12.7
 74
    0
 49
12.7
 74
    0
 49
-12.7
 74
    0
  0
ENDTAB
  0
TABLE
  2
LAYER
  5
2
330
0
100
AcDbSymbolTable
 70
    1
  0
LAYER
  5
10
330
2
100
AcDbSymbolTableRecord
100
AcDbLayerTableRecord
  2
0
 70
    0
 62
    7
  6
CONTINUOUS
370
    0
390
F
  0
LAYER
  5
4A
330
2
100
AcDbSymbolTableRecord
100
AcDbLayerTableRecord
  2
CORTAR
 70
    0
 62
    1
  6
CONTINUOUS
370
    5
390
F
  0
LAYER
  5
4B
330
2
100
AcDbSymbolTableRecord
100
AcDbLayerTableRecord
  2
GRABAR
 70
    0
 62
    5
  6
CONTINUOUS
370
    5
390
F
  0
ENDTAB
  0
TABLE
  2
STYLE
  5
3
330
0
100
AcDbSymbolTable
 70
    3
  0
STYLE
  5
4C
330
2
100
AcDbSymbolTableRecord
100
AcDbTextStyleTableRecord
  2
Standard
 70
    0
 40
0
 41
1
 50
0
 71
    0
 42
1
  3
txt
  4

  0
ENDTAB
  0
TABLE
  2
VIEW
  5
6
330
0
100
AcDbSymbolTable
 70
    0
  0
ENDTAB
  0
TABLE
  2
UCS
  5
7
330
0
100
AcDbSymbolTable
 70
    0
  0
ENDTAB
  0
TABLE
  2
APPID
  5
9
330
0
100
AcDbSymbolTable
 70
    1
  0
APPID
  5
12
330
9
100
AcDbSymbolTableRecord
100
AcDbRegAppTableRecord
  2
ACAD
 70
    0
  0
APPID
  5
4D
330
9
100
AcDbSymbolTableRecord
100
AcDbRegAppTableRecord
  2
LibreCad
 70
    0
  0
ENDTAB
  0
TABLE
  2
DIMSTYLE
  5
A
330
0
100
AcDbSymbolTable
 70
    1
100
AcDbDimStyleTable
 71
    1
  0
DIMSTYLE
105
4E
330
A
100
AcDbSymbolTableRecord
100
AcDbDimStyleTableRecord
  2
Standard
 70
    0
 40
1
 41
2.5
 42
0.625
 43
0.38
 44
1.25
 45
0
 46
0
 47
0
 48
0
 49
1
140
2.5
141
0.09
142
2.5
143
25.4
144
1
145
0
146
1
147
0.625
148
0
 71
    0
 72
    0
 73
    0
 74
    1
 75
    0
 76
    0
 77
    0
 78
    1
 79
    0
170
    0
171
    2
172
    0
173
    0
174
    0
175
    0
176
    0
177
    0
178
    0
179
    0
271
    2
272
    4
273
    2
274
    2
275
    0
276
    0
277
    2
278
    0
279
    0
280
    0
281
    0
282
    0
283
    1
284
    0
285
    0
286
    0
288
    0
289
    3
340
standard
341

371
   -2
372
   -2
  0
ENDTAB
  0
TABLE
  2
BLOCK_RECORD
  5
1
330
0
100
AcDbSymbolTable
 70
    2
  0
BLOCK_RECORD
  5
1F
330
1
100
AcDbSymbolTableRecord
100
AcDbBlockTableRecord
  2
*Model_Space
 70
    0
280
    1
281
    0
  0
BLOCK_RECORD
  5
1E
330
1
100
AcDbSymbolTableRecord
100
AcDbBlockTableRecord
  2
*Paper_Space
 70
    0
280
    1
281
    0
  0
ENDTAB
  0
ENDSEC
  0
SECTION
  2
BLOCKS
  0
BLOCK
  5
20
330
1F
100
AcDbEntity
  8
0
100
AcDbBlockBegin
  2
*Model_Space
 70
    0
 10
0
 20
0
 30
0
  3
*Model_Space
  1

  0
ENDBLK
  5
21
330
1F
100
AcDbEntity
  8
0
100
AcDbBlockEnd
  0
BLOCK
  5
1C
330
1B
100
AcDbEntity
  8
0
100
AcDbBlockBegin
  2
*Paper_Space
 70
    0
 10
0
 20
0
 30
0
  3
*Paper_Space
  1

  0
ENDBLK
  5
1D
330
1F
100
AcDbEntity
  8
0
100
AcDbBlockEnd
  0
ENDSEC
  0
SECTION
  2
ENTITIES
  0
LINE
  5
4F
100
AcDbEntity
  8
CORTAR
  6
ByLayer
 62
  256
370
   -1
100
AcDbLine
 10
484.7512540257356
 20
905.4106290275845
 11
483.8485515042725
 21
905.4106290275845
  0
ARC
  5
50
100
AcDbEntity
  8
CORTAR
  6
ByLayer
 62
  256
370
   -1
100
AcDbCircle
 10
866.2067202516713
 20
585.3518296352564
 40
155.3847658687311
100
AcDbArc
 50
93.83037664558258
 51
205.3585560524157
  0
ARC
  5
51
100
AcDbEntity
  8
CORTAR
  6
ByLayer
 62
  256
370
   -1
100
AcDbCircle
 10
883.0914872592032
 20
807.2109872132016
 40
72.16985225132139
100
AcDbArc
 50
247.8032532675762
 51
18.92359264919024
  0
ARC
  5
52
100
AcDbEntity
  8
CORTAR
  6
ByLayer
 62
  256
370
   -1
100
AcDbCircle
 10
971.7092049723781
 20
819.5466233889528
 40
23.16455770803664
100
AcDbArc
 50
30.40001762090573
 51
151.4538954172971
  0
ARC
  5
53
100
AcDbEntity
  8
CORTAR
  6
ByLayer
 62
  256
370
   -1
100
AcDbCircle
 10
897.0456477158142
 20
811.6292717391671
 40
96.65950939731751
100
AcDbArc
 50
310.5551582977374
 51
11.72305557406872
  0
ARC
  5
54
100
AcDbEntity
  8
CORTAR
  6
ByLayer
 62
  256
370
   -1
100
AcDbCircle
 10
887.4386879184402
 20
807.3225851289784
 40
100.1441709682845
100
AcDbArc
 50
256.515462912183
 51
316.3431399908836
  0
ARC
  5
55
100
AcDbEntity
  8
CORTAR
  6
ByLayer
 62
  256
370
   -1
100
AcDbCircle
 10
859.2080728201637
 20
606.2028843922012
 40
103.8508745506204
100
AcDbArc
 50
87.30736940660147
 51
178.6735229673563
  0
ARC
  5
56
100
AcDbEntity
  8
CORTAR
  6
ByLayer
 62
  256
370
   -1
100
AcDbCircle
 10
1204.650329919963
 20
654.0485814157911
 40
451.5575843128924
100
AcDbArc
 50
185.7756257925694
 51
206.2080982753414
  0
ARC
  5
57
100
AcDbEntity
  8
CORTAR
  6
ByLayer
 62
  256
370
   -1
100
AcDbCircle
 10
764.0224515147668
 20
476.3416942428498
 40
41.60853747873489
100
AcDbArc
 50
234.9600729635308
 51
328.5398941800225
  0
ARC
  5
58
100
AcDbEntity
  8
CORTAR
  6
ByLayer
 62
  256
370
   -1
100
AcDbCircle
 10
688.5884333765042
 20
245.5329521032687
 40
203.3817279459465
100
AcDbArc
 50
75.31896921884668
 51
105.539130452206
  0
LINE
  5
59
100
AcDbEntity
  8
CORTAR
  6
ByLayer
 62
  256
370
   -1
100
AcDbLine
 10
273.5509085683639
 20
805.8346386051978
 11
373.7188438857617
 21
1072.410595498273
  0
ARC
  5
5A
100
AcDbEntity
  8
CORTAR
  6
ByLayer
 62
  256
370
   -1
100
AcDbCircle
 10
367.1604907190041
 20
770.6601289485936
 40
100
100
AcDbArc
 50
159.4059097796912
 51
196.3999066556279
  0
LINE
  5
5B
100
AcDbEntity
  8
CORTAR
  6
ByLayer
 62
  256
370
   -1
100
AcDbLine
 10
290.4634930337324
 20
469.9215315000006
 11
311.6653015530032
 21
484.8459669146563
  0
LINE
  5
5C
100
AcDbEntity
  8
CORTAR
  6
ByLayer
 62
  256
370
   -1
100
AcDbLine
 10
330.8503634006819
 20
539.8490670394265
 11
271.2290472669977
 21
742.426139552575
  0
ARC
  5
5D
100
AcDbEntity
  8
CORTAR
  6
ByLayer
 62
  256
370
   -1
100
AcDbCircle
 10
282.8846416746787
 20
525.7320723414172
 40
50
100
AcDbArc
 50
305.1425861127963
 51
16.39990665562795
  0
LINE
  5
5E
100
AcDbEntity
  8
CORTAR
  6
ByLayer
 62
  256
370
   -1
100
AcDbLine
 10
372.1770330718604
 20
487.3162876963707
 11
385.9161603557717
 21
557.3204124286809
  0
ARC
  5
5F
100
AcDbEntity
  8
CORTAR
  6
ByLayer
 62
  256
370
   -1
100
AcDbCircle
 10
323.1130440266749
 20
496.9456687239305
 40
50
100
AcDbArc
 50
270.7742201649281
 51
348.8961665633639
  0
LINE
  5
60
100
AcDbEntity
  8
CORTAR
  6
ByLayer
 62
  256
370
   -1
100
AcDbLine
 10
300.5986158317027
 20
446.6368545264893
 11
323.7886580165263
 21
446.9502334749329
  0
LINE
  5
61
100
AcDbEntity
  8
CORTAR
  6
ByLayer
 62
  256
370
   -1
100
AcDbLine
 10
290.4634930337324
 20
456.6359415762888
 11
290.4634930337324
 21
469.9215315000006
  0
ARC
  5
62
100
AcDbEntity
  8
CORTAR
  6
ByLayer
 62
  256
370
   -1
100
AcDbCircle
 10
300.4634930337324
 20
456.6359415762888
 40
10
100
AcDbArc
 50
180
 51
270.7742201649281
  0
LINE
  5
63
100
AcDbEntity
  8
CORTAR
  6
ByLayer
 62
  256
370
   -1
100
AcDbLine
 10
534.290237682855
 20
905.4106290275845
 11
484.7512540257356
 21
905.4106290275845
  0
ARC
  5
64
100
AcDbEntity
  8
CORTAR
  6
ByLayer
 62
  256
370
   -1
100
AcDbCircle
 10
534.290237682855
 20
915.4106290275844
 40
10
100
AcDbArc
 50
270
 51
310.8150838748812
  0
LINE
  5
65
100
AcDbEntity
  8
GRABAR
  6
ByLayer
 62
  256
370
   -1
100
AcDbLine
 10
567.9297932358335
 20
953.8698326667693
 11
559.6674149268894
 21
941.6936962114835
  0
LINE
  5
66
100
AcDbEntity
  8
GRABAR
  6
ByLayer
 62
  256
370
   -1
100
AcDbLine
 10
559.6674149268894
 20
941.6936962114835
 11
574.3434475715848
 21
940.6263349279034
  0
LINE
  5
67
100
AcDbEntity
  8
GRABAR
  6
ByLayer
 62
  256
370
   -1
100
AcDbLine
 10
574.3434475715848
 20
940.6263349279034
 11
567.9297932358335
 21
953.8698326667693
  0
ARC
  5
68
100
AcDbEntity
  8
GRABAR
  6
ByLayer
 62
  256
370
   -1
100
AcDbCircle
 10
520.5449859119396
 20
1015.346192409646
 40
92.07242572581791
100
AcDbArc
 50
265.7069869489379
 51
305.7539702138332
  0
LINE
  5
69
100
AcDbEntity
  8
GRABAR
  6
ByLayer
 62
  256
370
   -1
100
AcDbLine
 10
470
 20
1000
 11
500
 21
1020
  0
LINE
  5
6A
100
AcDbEntity
  8
GRABAR
  6
ByLayer
 62
  256
370
   -1
100
AcDbLine
 10
470
 20
1000
 11
500
 21
980
  0
ARC
  5
6B
100
AcDbEntity
  8
GRABAR
  6
ByLayer
 62
  256
370
   -1
100
AcDbCircle
 10
485
 20
1000
 40
25
100
AcDbArc
 50
306.869897645844
 51
53.13010235415599
  0
LINE
  5
6C
100
AcDbEntity
  8
GRABAR
  6
ByLayer
 62
  256
370
   -1
100
AcDbLine
 10
373.7188438857617
 20
1128.975680412238
 11
386.8518065748228
 21
1079.176860727567
  0
ARC
  5
6D
100
AcDbEntity
  8
GRABAR
  6
ByLayer
 62
  256
370
   -1
100
AcDbCircle
 10
541.3200751051618
 20
860.746072299391
 40
91.84370749592325
100
AcDbArc
 50
103.642667067999
 51
153.6392797755573
  0
ARC
  5
6E
100
AcDbEntity
  8
GRABAR
  6
ByLayer
 62
  256
370
   -1
100
AcDbCircle
 10
581.149563385848
 20
855.9044645413263
 40
107.0692194729909
100
AcDbArc
 50
120.001798376737
 51
143.9726266148963
  0
ARC
  5
6F
100
AcDbEntity
  8
GRABAR
  6
ByLayer
 62
  256
370
   -1
100
AcDbCircle
 10
509.3950091994151
 20
887.6611371229774
 40
70.90551209290624
100
AcDbArc
 50
77.51811262771096
 51
174.7982582519056
  0
LINE
  5
70
100
AcDbEntity
  8
GRABAR
  6
ByLayer
 62
  256
370
   -1
100
AcDbLine
 10
496.4973139053203
 20
1011.159163685226
 11
493.8062715535299
 21
1000.226804131077
  0
LINE
  5
71
100
AcDbEntity
  8
GRABAR
  6
ByLayer
 62
  256
370
   -1
100
AcDbLine
 10
493.8062715535299
 20
1000.226804131077
 11
497.1700744932679
 21
988.9580642829551
  0
LINE
  5
72
100
AcDbEntity
  8
GRABAR
  6
ByLayer
 62
  256
370
   -1
100
AcDbLine
 10
497.1700744932679
 20
988.9580642829551
 11
498.3474055221761
 21
1000.226804131077
  0
LINE
  5
73
100
AcDbEntity
  8
GRABAR
  6
ByLayer
 62
  256
370
   -1
100
AcDbLine
 10
498.3474055221761
 20
1000.226804131077
 11
496.4973139053203
 21
1011.159163685226
  0
LINE
  5
74
100
AcDbEntity
  8
CORTAR
  6
ByLayer
 62
  256
370
   -1
100
AcDbLine
 10
634.1031945000072
 20
441.4806135000051
 11
446.6449040668901
 21
445.0514669773576
  0
LINE
  5
75
100
AcDbEntity
  8
CORTAR
  6
ByLayer
 62
  256
370
   -1
100
AcDbLine
 10
385.9161603557717
 20
557.3204124286809
 11
418.9698744389021
 21
464.9395192219828
  0
ARC
  5
76
100
AcDbEntity
  8
CORTAR
  6
ByLayer
 62
  256
370
   -1
100
AcDbCircle
 10
447.2162640945347
 20
475.0460256125302
 40
30
100
AcDbArc
 50
199.6871161981259
 51
268.9087167484262
  0
ARC
  5
77
100
AcDbEntity
  8
CORTAR
  6
ByLayer
 62
  256
370
   -1
100
AcDbCircle
 10
663.7770272285535
 20
562.6155663605825
 40
75.93162712360292
100
AcDbArc
 50
236.4735824187038
 51
324.7605320404885
  0
ARC
  5
78
100
AcDbEntity
  8
CORTAR
  6
ByLayer
 62
  256
370
   -1
100
AcDbCircle
 10
296.0330211053495
 20
634.4840122732725
 40
329.660287455081
100
AcDbArc
 50
342.1645216696357
 51
55.26898601093529
  0
ARC
  5
79
100
AcDbEntity
  8
CORTAR
  6
ByLayer
 62
  256
370
   -1
100
AcDbCircle
 10
638.4080061943895
 20
524.3255266375705
 40
30
100
AcDbArc
 50
162.1645216696361
 51
236.4735824187038
  0
ARC
  5
7A
100
AcDbEntity
  8
GRABAR
  6
ByLayer
 62
  256
370
   -1
100
AcDbCircle
 10
413.0969361660178
 20
1103.486743343529
 40
35.77397406020864
100
AcDbArc
 50
222.8077866804235
 51
274.8192847375084
  0
ARC
  5
7B
100
AcDbEntity
  8
GRABAR
  6
ByLayer
 62
  256
370
   -1
100
AcDbCircle
 10
426.0868144869588
 20
851.2685740704346
 40
216.8006983297816
100
AcDbArc
 50
77.33417829345336
 51
92.63959419647492
  0
LINE
  5
7C
100
AcDbEntity
  8
CORTAR
  6
ByLayer
 62
  256
370
   -1
100
AcDbLine
 10
373.7188438857617
 20
1072.410595498273
 11
373.7188438857617
 21
1156.748635779355
  0
ARC
  5
7D
100
AcDbEntity
  8
CORTAR
  6
ByLayer
 62
  256
370
   -1
100
AcDbCircle
 10
376.7188438857615
 20
1156.748635779355
 40
3
100
AcDbArc
 50
42.38424512457986
 51
180
  0
LINE
  5
7E
100
AcDbEntity
  8
CORTAR
  6
ByLayer
 62
  256
370
   -1
100
AcDbLine
 10
451.2511432196059
 20
1147.183109144316
 11
487.8537760536711
 21
1060.353266252863
  0
LINE
  5
7F
100
AcDbEntity
  8
CORTAR
  6
ByLayer
 62
  256
370
   -1
100
AcDbLine
 10
434.0670364961344
 20
1098.36004163573
 11
445.5681518620302
 21
1146.712002122769
  0
ARC
  5
80
100
AcDbEntity
  8
CORTAR
  6
ByLayer
 62
  256
370
   -1
100
AcDbCircle
 10
448.4867235265986
 20
1146.017783541356
 40
3
100
AcDbArc
 50
22.85758254381026
 51
166.6201256062632
  0
ARC
  5
81
100
AcDbEntity
  8
CORTAR
  6
ByLayer
 62
  256
370
   -1
100
AcDbCircle
 10
504.1732120786413
 20
1011.332138140028
 40
40
100
AcDbArc
 50
22.83365417791763
 51
69.1455419604217
  0
LINE
  5
82
100
AcDbEntity
  8
CORTAR
  6
ByLayer
 62
  256
370
   -1
100
AcDbLine
 10
573.3292016328568
 20
935.9129689355418
 11
540.8264363863159
 21
907.8423989498928
  0
LINE
  5
83
100
AcDbEntity
  8
CORTAR
  6
ByLayer
 62
  256
370
   -1
100
AcDbLine
 10
541.0386270841639
 20
1026.854418142353
 11
575.4733256711926
 21
945.07200899816
  0
ARC
  5
84
100
AcDbEntity
  8
CORTAR
  6
ByLayer
 62
  256
370
   -1
100
AcDbCircle
 10
568.1002426700882
 20
941.967552997695
 40
8
100
AcDbArc
 50
310.8150838748816
 51
22.83365417791746
  0
LINE
  5
85
100
AcDbEntity
  8
GRABAR
  6
ByLayer
 62
  256
370
   -1
100
AcDbLine
 10
440.9508092084337
 20
1127.300183143556
 11
443.4382985316681
 21
1093.016508762933
  0
ARC
  5
86
100
AcDbEntity
  8
GRABAR
  6
ByLayer
 62
  256
370
   -1
100
AcDbCircle
 10
487.7836793293422
 20
1116.656948981825
 40
50.25319106120238
100
AcDbArc
 50
208.0619947378786
 51
244.8507225308007
  0
LINE
  5
87
100
AcDbEntity
  8
CORTAR
  6
ByLayer
 62
  256
370
   -1
100
AcDbLine
 10
378.9347660716623
 20
1158.770933696585
 11
434.0670364961343
 21
1098.36004163573
  0
LINE
  5
88
100
AcDbEntity
  8
CORTAR
  6
ByLayer
 62
  256
370
   -1
100
AcDbLine
 10
487.8537760536711
 20
1060.353266252863
 11
518.4130251823208
 21
1048.711647537187
  0
LINE
  5
89
100
AcDbEntity
  8
GRABAR
  6
ByLayer
 62
  256
370
   -1
100
AcDbLine
 10
434.0670364961343
 20
1098.36004163573
 11
458.572880903303
 21
1071.507892976812
  0
LINE
  5
8A
100
AcDbEntity
  8
GRABAR
  6
ByLayer
 62
  256
370
   -1
100
AcDbLine
 10
458.572880903303
 20
1071.507892976812
 11
487.8537760536711
 21
1060.353266252863
  0
ENDSEC
  0
SECTION
  2
OBJECTS
  0
DICTIONARY
  5
C
330
0
100
AcDbDictionary
281
    1
  3
ACAD_GROUP
350
D
  0
DICTIONARY
  5
D
330
C
100
AcDbDictionary
281
    1
  0
ENDSEC
  0
EOF
