  0
SECTION
  2
HEADER
  9
$ACADVER
  1
AC1009
  9
$INSBASE
 10
0.0
 20
0.0
 30
0.0
  9
$EXTMIN
 10
-59.3725607829360413
 20
-1.1891980899813459
 30
0.0
  9
$EXTMAX
 10
212.3802962832523917
 20
306.5135985136794261
 30
0.0
  9
$LIMMIN
 10
0.0
 20
0.0
  9
$LIMMAX
 10
420.0
 20
297.0
  9
$ORTHOMODE
 70
     0
  9
$REGENMODE
 70
     1
  9
$FILLMODE
 70
     1
  9
$QTEXTMODE
 70
     0
  9
$MIRRTEXT
 70
     0
  9
$DRAGMODE
 70
     2
  9
$LTSCALE
 40
1.0
  9
$OSMODE
 70
    37
  9
$ATTMODE
 70
     0
  9
$TEXTSIZE
 40
1.0
  9
$TRACEWID
 40
15.6799999999999997
  9
$TEXTSTYLE
  7
STANDARD
  9
$CLAYER
  8
0
  9
$CELTYPE
  6
BYLAYER
  9
$CECOLOR
 62
   256
  9
$DIMSCALE
 40
1.0
  9
$DIMASZ
 40
2.5
  9
$DIMEXO
 40
0.625
  9
$DIMDLI
 40
3.75
  9
$DIMRND
 40
0.0
  9
$DIMDLE
 40
0.0
  9
$DIMEXE
 40
1.25
  9
$DIMTP
 40
0.0
  9
$DIMTM
 40
0.0
  9
$DIMTXT
 40
2.5
  9
$DIMCEN
 40
2.5
  9
$DIMTSZ
 40
0.0
  9
$DIMTOL
 70
     0
  9
$DIMLIM
 70
     0
  9
$DIMTIH
 70
     0
  9
$DIMTOH
 70
     0
  9
$DIMSE1
 70
     0
  9
$DIMSE2
 70
     0
  9
$DIMTAD
 70
     1
  9
$DIMZIN
 70
     8
  9
$DIMBLK
  1

  9
$DIMASO
 70
     1
  9
$DIMSHO
 70
     1
  9
$DIMPOST
  1

  9
$DIMAPOST
  1

  9
$DIMALT
 70
     0
  9
$DIMALTD
 70
     3
  9
$DIMALTF
 40
0.03937
  9
$DIMLFAC
 40
1.0
  9
$DIMTOFL
 70
     1
  9
$DIMTVP
 40
0.0
  9
$DIMTIX
 70
     0
  9
$DIMSOXD
 70
     0
  9
$DIMSAH
 70
     0
  9
$DIMBLK1
  1

  9
$DIMBLK2
  1

  9
$DIMSTYLE
  2
STANDARD
  9
$DIMCLRD
 70
     0
  9
$DIMCLRE
 70
     0
  9
$DIMCLRT
 70
     0
  9
$DIMTFAC
 40
1.0
  9
$DIMGAP
 40
0.625
  9
$LUNITS
 70
     2
  9
$LUPREC
 70
     4
  9
$SKETCHINC
 40
1.0
  9
$FILLETRAD
 40
0.0
  9
$AUNITS
 70
     0
  9
$AUPREC
 70
     2
  9
$MENU
  1
.
  9
$ELEVATION
 40
0.0
  9
$PELEVATION
 40
0.0
  9
$THICKNESS
 40
0.0
  9
$LIMCHECK
 70
     0
  9
$BLIPMODE
 70
     0
  9
$CHAMFERA
 40
0.0
  9
$CHAMFERB
 40
0.0
  9
$SKPOLY
 70
     0
  9
$TDCREATE
 40
2460320.5498726852238178
  9
$TDUPDATE
 40
2460321.530868056230247
  9
$TDINDWG
 40
0.9810069444
  9
$TDUSRTIMER
 40
0.9810069444
  9
$USRTIMER
 70
     1
  9
$ANGBASE
 50
0.0
  9
$ANGDIR
 70
     0
  9
$PDMODE
 70
    34
  9
$PDSIZE
 40
0.0
  9
$PLINEWID
 40
0.0
  9
$COORDS
 70
     1
  9
$SPLFRAME
 70
     0
  9
$SPLINETYPE
 70
     6
  9
$SPLINESEGS
 70
     8
  9
$ATTDIA
 70
     1
  9
$ATTREQ
 70
     1
  9
$HANDLING
 70
     1
  9
$HANDSEED
  5
200D1
  9
$SURFTAB1
 70
     6
  9
$SURFTAB2
 70
     6
  9
$SURFTYPE
 70
     6
  9
$SURFU
 70
     6
  9
$SURFV
 70
     6
  9
$UCSNAME
  2

  9
$UCSORG
 10
0.0
 20
0.0
 30
0.0
  9
$UCSXDIR
 10
1.0
 20
0.0
 30
0.0
  9
$UCSYDIR
 10
0.0
 20
1.0
 30
0.0
  9
$PUCSNAME
  2

  9
$PUCSORG
 10
0.0
 20
0.0
 30
0.0
  9
$PUCSXDIR
 10
1.0
 20
0.0
 30
0.0
  9
$PUCSYDIR
 10
0.0
 20
1.0
 30
0.0
  9
$USERI1
 70
     0
  9
$USERI2
 70
     0
  9
$USERI3
 70
     0
  9
$USERI4
 70
     0
  9
$USERI5
 70
     0
  9
$USERR1
 40
0.0
  9
$USERR2
 40
0.0
  9
$USERR3
 40
0.0
  9
$USERR4
 40
0.0
  9
$USERR5
 40
0.0
  9
$WORLDVIEW
 70
     1
  9
$SHADEDGE
 70
     3
  9
$SHADEDIF
 70
    70
  9
$TILEMODE
 70
     1
  9
$MAXACTVP
 70
    64
  9
$PLIMCHECK
 70
     0
  9
$PEXTMIN
 10
0.0
 20
0.0
 30
0.0
  9
$PEXTMAX
 10
0.0
 20
0.0
 30
0.0
  9
$PLIMMIN
 10
0.0
 20
0.0
  9
$PLIMMAX
 10
210.0
 20
297.0
  9
$UNITMODE
 70
     0
  9
$VISRETAIN
 70
     1
  9
$PLINEGEN
 70
     0
  9
$PSLTSCALE
 70
     1
  0
ENDSEC
  0
SECTION
  2
TABLES
  0
TABLE
  2
VPORT
 70
     1
  0
VPORT
  2
*ACTIVE
 70
     0
 10
0.0
 20
0.0
 11
1.0
 21
1.0
 12
232.1520304820556078
 22
131.6297651061424858
 13
0.0
 23
0.0
 14
10.0
 24
10.0
 15
10.0
 25
10.0
 16
0.0
 26
0.0
 36
1.0
 17
0.0
 27
0.0
 37
0.0
 40
379.3546653755182092
 41
2.0408163265306118
 42
50.0
 43
0.0
 44
0.0
 50
0.0
 51
0.0
 71
     0
 72
   100
 73
     1
 74
     3
 75
     0
 76
     1
 77
     0
 78
     0
  0
ENDTAB
  0
TABLE
  2
LTYPE
 70
    25
  0
LTYPE
  2
CONTINUOUS
 70
     0
  3
Solid line
 72
    65
 73
     0
 40
0.0
  0
LTYPE
  2
DOT
 70
     0
  3
Dot . . . . . . . . . . . . . . . . . . . . . .
 72
    65
 73
     2
 40
6.3499999999999988
 49
0.0
 49
-6.3499999999999988
  0
LTYPE
  2
DOTTINY
 70
     0
  3
Dot (.15x) .....................................
 72
    65
 73
     2
 40
0.9525
 49
0.0
 49
-0.9525
  0
LTYPE
  2
DOT2
 70
     0
  3
Dot (.5x) .....................................
 72
    65
 73
     2
 40
3.1749999999999989
 49
0.0
 49
-3.1749999999999989
  0
LTYPE
  2
DOTX2
 70
     0
  3
Dot (2x) .  .  .  .  .  .  .  .  .  .  .  .  .
 72
    65
 73
     2
 40
12.6999999999999993
 49
0.0
 49
-12.6999999999999993
  0
LTYPE
  2
DASHED
 70
     0
  3
Dashed _ _ _ _ _ _ _ _ _ _ _ _ _ _ _ _ _
 72
    65
 73
     2
 40
19.0500000000000007
 49
12.6999999999999993
 49
-6.3499999999999988
  0
LTYPE
  2
DASHEDTINY
 70
     0
  3
Dashed (.15x) _ _ _ _ _ _ _ _ _ _ _ _ _ _ _ _ _
 72
    65
 73
     2
 40
2.857499999999999
 49
1.905
 49
-0.9525
  0
LTYPE
  2
DASHED2
 70
     0
  3
Dashed (.5x) _ _ _ _ _ _ _ _ _ _ _ _ _ _ _ _ _
 72
    65
 73
     2
 40
9.5250000000000004
 49
6.3499999999999988
 49
-3.1749999999999989
  0
LTYPE
  2
DASHEDX2
 70
     0
  3
Dashed (2x) ____  ____  ____  ____  ____  ___
 72
    65
 73
     2
 40
38.0999999999999872
 49
25.3999999999999986
 49
-12.6999999999999993
  0
LTYPE
  2
DASHDOT
 70
     0
  3
Dash dot __ . __ . __ . __ . __ . __ . __ . __
 72
    65
 73
     4
 40
25.3999999999999986
 49
12.6999999999999993
 49
-6.3499999999999988
 49
0.0
 49
-6.3499999999999988
  0
LTYPE
  2
DASHDOTTINY
 70
     0
  3
Dash dot (.15x) _._._._._._._._._._._._._._._.
 72
    65
 73
     4
 40
3.8100000000000001
 49
1.905
 49
-0.9525
 49
0.0
 49
-0.9525
  0
LTYPE
  2
DASHDOT2
 70
     0
  3
Dash dot (.5x) _._._._._._._._._._._._._._._.
 72
    65
 73
     4
 40
12.6999999999999993
 49
6.3499999999999988
 49
-3.1749999999999989
 49
0.0
 49
-3.1749999999999989
  0
LTYPE
  2
DASHDOTX2
 70
     0
  3
Dash dot (2x) ____  .  ____  .  ____  .  ___
 72
    65
 73
     4
 40
50.7999999999999972
 49
25.3999999999999986
 49
-12.6999999999999993
 49
0.0
 49
-12.6999999999999993
  0
LTYPE
  2
DIVIDE
 70
     0
  3
Divide ____ . . ____ . . ____ . . ____ . . ____
 72
    65
 73
     6
 40
31.75
 49
12.6999999999999993
 49
-6.3499999999999988
 49
0.0
 49
-6.3499999999999988
 49
0.0
 49
-6.3499999999999988
  0
LTYPE
  2
DIVIDETINY
 70
     0
  3
Divide (.15x) __..__..__..__..__..__..__..__.._
 72
    65
 73
     6
 40
4.7625000000000002
 49
1.905
 49
-0.9525
 49
0.0
 49
-0.9525
 49
0.0
 49
-0.9525
  0
LTYPE
  2
DIVIDE2
 70
     0
  3
Divide (.5x) __..__..__..__..__..__..__..__.._
 72
    65
 73
     6
 40
15.875
 49
6.3499999999999988
 49
-3.1749999999999989
 49
0.0
 49
-3.1749999999999989
 49
0.0
 49
-3.1749999999999989
  0
LTYPE
  2
DIVIDEX2
 70
     0
  3
Divide (2x) ________  .  .  ________  .  .  _
 72
    65
 73
     6
 40
63.5
 49
25.3999999999999986
 49
-12.6999999999999993
 49
0.0
 49
-12.6999999999999993
 49
0.0
 49
-12.6999999999999993
  0
LTYPE
  2
BORDER
 70
     0
  3
Border __ __ . __ __ . __ __ . __ __ . __ __ .
 72
    65
 73
     6
 40
44.4500000000000028
 49
12.6999999999999993
 49
-6.3499999999999988
 49
12.6999999999999993
 49
-6.3499999999999988
 49
0.0
 49
-6.3499999999999988
  0
LTYPE
  2
BORDERTINY
 70
     0
  3
Border (.15x) __.__.__.__.__.__.__.__.__.__.__.
 72
    65
 73
     6
 40
6.6675000000000004
 49
1.905
 49
-0.9525
 49
1.905
 49
-0.9525
 49
0.0
 49
-0.9525
  0
LTYPE
  2
BORDER2
 70
     0
  3
Border (.5x) __.__.__.__.__.__.__.__.__.__.__.
 72
    65
 73
     6
 40
22.2250000000000014
 49
6.3499999999999988
 49
-3.1749999999999989
 49
6.3499999999999988
 49
-3.1749999999999989
 49
0.0
 49
-3.1749999999999989
  0
LTYPE
  2
BORDERX2
 70
     0
  3
Border (2x) ____  ____  .  ____  ____  .  ___
 72
    65
 73
     6
 40
88.8999999999999773
 49
25.3999999999999986
 49
-12.6999999999999993
 49
25.3999999999999986
 49
-12.6999999999999993
 49
0.0
 49
-12.6999999999999993
  0
LTYPE
  2
CENTER
 70
     0
  3
Center ____ _ ____ _ ____ _ ____ _ ____ _ ____
 72
    65
 73
     4
 40
50.7999999999999972
 49
31.75
 49
-6.3499999999999988
 49
6.3499999999999988
 49
-6.3499999999999988
  0
LTYPE
  2
CENTERTINY
 70
     0
  3
Center (.15x) ___ _ ___ _ ___ _ ___ _ ___ _ ___
 72
    65
 73
     4
 40
7.6200000000000001
 49
4.7625000000000002
 49
-0.9525
 49
0.9525
 49
-0.9525
  0
LTYPE
  2
CENTER2
 70
     0
  3
Center (.5x) ___ _ ___ _ ___ _ ___ _ ___ _ ___
 72
    65
 73
     4
 40
28.5749999999999993
 49
19.0500000000000007
 49
-3.1749999999999989
 49
3.1749999999999989
 49
-3.1749999999999989
  0
LTYPE
  2
CENTERX2
 70
     0
  3
Center (2x) ________  __  ________  __  _____
 72
    65
 73
     4
 40
101.5999999999999943
 49
63.5
 49
-12.6999999999999993
 49
12.6999999999999993
 49
-12.6999999999999993
  0
ENDTAB
  0
TABLE
  2
LAYER
 70
     1
  0
LAYER
  2
0
 70
     0
 62
     7
  6
CONTINUOUS
  0
ENDTAB
  0
TABLE
  2
STYLE
 70
     2
  0
STYLE
  2
GREEK_OL
 70
     0
 40
0.0
 41
1.0
 50
0.0
 71
     0
 42
1.0
  3
greek_ol
  4

  0
STYLE
  2
STANDARD
 70
     0
 40
0.0
 41
1.0
 50
0.0
 71
     0
 42
1.0
  3
txt
  4

  0
ENDTAB
  0
TABLE
  2
VIEW
 70
     0
  0
ENDTAB
  0
TABLE
  2
UCS
 70
     0
  0
ENDTAB
  0
TABLE
  2
APPID
 70
     4
  0
APPID
  2
ACAD
 70
     0
  0
APPID
  2
LIBRECAD
 70
     0
  0
APPID
  2
ACAD_NAV_VCDISPLAY
 70
     0
  0
APPID
  2
ACAD_MLEADERVER
 70
     0
  0
ENDTAB
  0
TABLE
  2
DIMSTYLE
 70
     1
  0
DIMSTYLE
  2
STANDARD
 70
     0
  3

  4

  5

  6

  7

 40
1.0
 41
2.5
 42
0.625
 43
0.38
 44
1.25
 45
0.0
 46
0.0
 47
0.0
 48
0.0
140
2.5
141
0.09
142
0.0
143
25.3999999999999986
144
1.0
145
0.0
146
1.0
147
0.625
 71
     0
 72
     0
 73
     0
 74
     1
 75
     0
 76
     0
 77
     0
 78
     8
170
     0
171
     2
172
     0
173
     0
174
     0
175
     0
176
     0
177
     0
178
     0
  0
ENDTAB
  0
ENDSEC
  0
SECTION
  2
BLOCKS
  0
BLOCK
  8
0
  2
$MODEL_SPACE
 70
     0
 10
0.0
 20
0.0
 30
0.0
  3
$MODEL_SPACE
  1

  0
ENDBLK
  5
21
  8
0
  0
BLOCK
 67
     1
  8
0
  2
$PAPER_SPACE
 70
     0
 10
0.0
 20
0.0
 30
0.0
  3
$PAPER_SPACE
  1

  0
ENDBLK
  5
1D
 67
     1
  8
0
  0
ENDSEC
  0
SECTION
  2
ENTITIES
  0
POLYLINE
  5
4E
  8
0
 62
     7
 66
     1
 10
0.0
 20
0.0
 30
0.0
 70
     1
  0
VERTEX
  5
2008F
  8
0
 62
     7
 10
2.3802962832523908
 20
-1.1891980899813459
 30
0.0
  0
VERTEX
  5
20090
  8
0
 62
     7
 10
212.3802962832523917
 20
-1.1891980899813459
 30
0.0
  0
VERTEX
  5
20091
  8
0
 62
     7
 10
212.3802962832523917
 20
295.8108019100187107
 30
0.0
  0
VERTEX
  5
20092
  8
0
 62
     7
 10
2.3802962832523908
 20
295.8108019100187107
 30
0.0
  0
SEQEND
  5
20093
  8
0
 62
     7
  0
LINE
  5
4F
  8
0
 62
     7
 10
19.1337209302323608
 20
219.7151162790700027
 30
0.0
 11
59.1337209302323572
 21
219.7151162790700027
 31
0.0
  0
LINE
  5
50
  8
0
 62
     7
 10
59.1337209302323572
 20
219.7151162790700027
 30
0.0
 11
68.0972934455756302
 21
255.2817915941205058
 31
0.0
  0
LINE
  5
51
  8
0
 62
     7
 10
19.1337209302323608
 20
219.7151162790700027
 30
0.0
 11
10.1701484148890806
 21
255.2817915941205058
 31
0.0
  0
ARC
  5
52
  8
0
 62
     7
 10
39.1337209302323572
 20
279.7151162790700027
 30
0.0
 40
10.0
 50
0.0
 51
180.0
  0
ARC
  5
53
  8
0
 62
     7
 10
29.1337209302323608
 20
269.7151162790700027
 30
0.0
 40
10.0
 50
90.0
 51
180.0
  0
ARC
  5
54
  8
0
 62
     7
 10
19.1337209302323608
 20
259.7151162790700027
 30
0.0
 40
10.0
 50
90.0
 51
0.0
  0
ARC
  5
55
  8
0
 62
     7
 10
39.1337209302323572
 20
259.7151162790700027
 30
0.0
 40
10.0
 50
180.0
 51
0.0
  0
ARC
  5
56
  8
0
 62
     7
 10
39.1337209302323572
 20
279.7151162790700027
 30
0.0
 40
10.0
 50
0.0
 51
180.0
  0
ARC
  5
57
  8
0
 62
     7
 10
49.1337209302323572
 20
269.7151162790700027
 30
0.0
 40
10.0
 50
0.0
 51
90.0
  0
ARC
  5
58
  8
0
 62
     7
 10
59.1337209302323572
 20
259.7151162790700027
 30
0.0
 40
10.0
 50
180.0
 51
90.0
  0
LINE
  5
59
  8
0
 62
     7
 10
88.2034883720931759
 20
219.7151162790700027
 30
0.0
 11
128.2034883720932044
 21
219.7151162790700027
 31
0.0
  0
LINE
  5
5A
  8
0
 62
     7
 10
128.2034883720932044
 20
219.7151162790700027
 30
0.0
 11
137.1670608874364063
 21
255.2817915941205058
 31
0.0
  0
LINE
  5
5B
  8
0
 62
     7
 10
88.2034883720931759
 20
219.7151162790700027
 30
0.0
 11
79.2399158567499029
 21
255.2817915941205058
 31
0.0
  0
ARC
  5
5C
  8
0
 62
     7
 10
108.2034883720932044
 20
279.7151162790700027
 30
0.0
 40
10.0
 50
0.0
 51
180.0
  0
ARC
  5
5D
  8
0
 62
     7
 10
98.2034883720931759
 20
269.7151162790700027
 30
0.0
 40
10.0
 50
90.0
 51
180.0
  0
ARC
  5
5E
  8
0
 62
     7
 10
88.2034883720931759
 20
259.7151162790700027
 30
0.0
 40
10.0
 50
90.0
 51
0.0
  0
ARC
  5
5F
  8
0
 62
     7
 10
108.2034883720932044
 20
259.7151162790700027
 30
0.0
 40
10.0
 50
180.0
 51
0.0
  0
ARC
  5
60
  8
0
 62
     7
 10
108.2034883720932044
 20
279.7151162790700027
 30
0.0
 40
10.0
 50
0.0
 51
180.0
  0
ARC
  5
61
  8
0
 62
     7
 10
118.2034883720932044
 20
269.7151162790700027
 30
0.0
 40
10.0
 50
0.0
 51
90.0
  0
ARC
  5
62
  8
0
 62
     7
 10
128.2034883720932044
 20
259.7151162790700027
 30
0.0
 40
10.0
 50
180.0
 51
90.0
  0
LINE
  5
63
  8
0
 62
     7
 10
157.2732558139539947
 20
219.7151162790700027
 30
0.0
 11
197.2732558139539947
 21
219.7151162790700027
 31
0.0
  0
LINE
  5
64
  8
0
 62
     7
 10
197.2732558139539947
 20
219.7151162790700027
 30
0.0
 11
206.2368283292973103
 21
255.2817915941205058
 31
0.0
  0
LINE
  5
65
  8
0
 62
     7
 10
157.2732558139539947
 20
219.7151162790700027
 30
0.0
 11
148.3096832986105937
 21
255.2817915941205058
 31
0.0
  0
ARC
  5
66
  8
0
 62
     7
 10
177.2732558139539947
 20
279.7151162790700027
 30
0.0
 40
10.0
 50
0.0
 51
180.0
  0
ARC
  5
67
  8
0
 62
     7
 10
167.2732558139539947
 20
269.7151162790700027
 30
0.0
 40
10.0
 50
90.0
 51
180.0
  0
ARC
  5
68
  8
0
 62
     7
 10
157.2732558139539947
 20
259.7151162790700027
 30
0.0
 40
10.0
 50
90.0
 51
0.0
  0
ARC
  5
69
  8
0
 62
     7
 10
177.2732558139539947
 20
259.7151162790700027
 30
0.0
 40
10.0
 50
180.0
 51
0.0
  0
ARC
  5
6A
  8
0
 62
     7
 10
177.2732558139539947
 20
279.7151162790700027
 30
0.0
 40
10.0
 50
0.0
 51
180.0
  0
ARC
  5
6B
  8
0
 62
     7
 10
187.2732558139539947
 20
269.7151162790700027
 30
0.0
 40
10.0
 50
0.0
 51
90.0
  0
ARC
  5
6C
  8
0
 62
     7
 10
197.2732558139539947
 20
259.7151162790700027
 30
0.0
 40
10.0
 50
180.0
 51
90.0
  0
LINE
  5
6D
  8
0
 62
     7
 10
19.7287926304493411
 20
142.8915054904234125
 30
0.0
 11
59.7287926304493411
 21
142.8915054904234125
 31
0.0
  0
LINE
  5
6E
  8
0
 62
     7
 10
59.7287926304493411
 20
142.8915054904234125
 30
0.0
 11
68.692365145792607
 21
178.4581808054738872
 31
0.0
  0
LINE
  5
6F
  8
0
 62
     7
 10
19.7287926304493411
 20
142.8915054904234125
 30
0.0
 11
10.7652201151060591
 21
178.4581808054738872
 31
0.0
  0
ARC
  5
70
  8
0
 62
     7
 10
39.7287926304493411
 20
202.8915054904234125
 30
0.0
 40
10.0
 50
0.0
 51
180.0
  0
ARC
  5
71
  8
0
 62
     7
 10
29.7287926304493411
 20
192.8915054904234125
 30
0.0
 40
10.0
 50
90.0
 51
180.0
  0
ARC
  5
72
  8
0
 62
     7
 10
19.7287926304493411
 20
182.8915054904234125
 30
0.0
 40
10.0
 50
90.0
 51
0.0
  0
ARC
  5
73
  8
0
 62
     7
 10
39.7287926304493411
 20
182.8915054904234125
 30
0.0
 40
10.0
 50
180.0
 51
0.0
  0
ARC
  5
74
  8
0
 62
     7
 10
39.7287926304493411
 20
202.8915054904234125
 30
0.0
 40
10.0
 50
0.0
 51
180.0
  0
ARC
  5
75
  8
0
 62
     7
 10
49.7287926304493411
 20
192.8915054904234125
 30
0.0
 40
10.0
 50
0.0
 51
90.0
  0
ARC
  5
76
  8
0
 62
     7
 10
59.7287926304493411
 20
182.8915054904234125
 30
0.0
 40
10.0
 50
180.0
 51
90.0
  0
LINE
  5
77
  8
0
 62
     7
 10
88.7985600723101527
 20
142.8915054904234125
 30
0.0
 11
128.7985600723102095
 21
142.8915054904234125
 31
0.0
  0
LINE
  5
78
  8
0
 62
     7
 10
128.7985600723102095
 20
142.8915054904234125
 30
0.0
 11
137.7621325876534115
 21
178.4581808054738872
 31
0.0
  0
LINE
  5
79
  8
0
 62
     7
 10
88.7985600723101527
 20
142.8915054904234125
 30
0.0
 11
79.8349875569668797
 21
178.4581808054738872
 31
0.0
  0
ARC
  5
7A
  8
0
 62
     7
 10
108.7985600723101953
 20
202.8915054904234125
 30
0.0
 40
10.0
 50
0.0
 51
180.0
  0
ARC
  5
7B
  8
0
 62
     7
 10
98.7985600723101527
 20
192.8915054904234125
 30
0.0
 40
10.0
 50
90.0
 51
180.0
  0
ARC
  5
7C
  8
0
 62
     7
 10
88.7985600723101527
 20
182.8915054904234125
 30
0.0
 40
10.0
 50
90.0
 51
0.0
  0
ARC
  5
7D
  8
0
 62
     7
 10
108.7985600723101953
 20
182.8915054904234125
 30
0.0
 40
10.0
 50
180.0
 51
0.0
  0
ARC
  5
7E
  8
0
 62
     7
 10
108.7985600723101953
 20
202.8915054904234125
 30
0.0
 40
10.0
 50
0.0
 51
180.0
  0
ARC
  5
7F
  8
0
 62
     7
 10
118.7985600723100958
 20
192.8915054904234125
 30
0.0
 40
10.0
 50
0.0
 51
90.0
  0
ARC
  5
80
  8
0
 62
     7
 10
128.7985600723102095
 20
182.8915054904234125
 30
0.0
 40
10.0
 50
180.0
 51
90.0
  0
LINE
  5
81
  8
0
 62
     7
 10
157.8683275141708862
 20
142.8915054904234125
 30
0.0
 11
197.8683275141709998
 21
142.8915054904234125
 31
0.0
  0
LINE
  5
82
  8
0
 62
     7
 10
197.8683275141709998
 20
142.8915054904234125
 30
0.0
 11
206.8319000295142871
 21
178.4581808054738872
 31
0.0
  0
LINE
  5
83
  8
0
 62
     7
 10
157.8683275141708862
 20
142.8915054904234125
 30
0.0
 11
148.9047549988275989
 21
178.4581808054738872
 31
0.0
  0
ARC
  5
84
  8
0
 62
     7
 10
177.8683275141709998
 20
202.8915054904234125
 30
0.0
 40
10.0
 50
0.0
 51
180.0
  0
ARC
  5
85
  8
0
 62
     7
 10
167.8683275141708862
 20
192.8915054904234125
 30
0.0
 40
10.0
 50
90.0
 51
180.0
  0
ARC
  5
86
  8
0
 62
     7
 10
157.8683275141708862
 20
182.8915054904234125
 30
0.0
 40
10.0
 50
90.0
 51
0.0
  0
ARC
  5
87
  8
0
 62
     7
 10
177.8683275141709998
 20
182.8915054904234125
 30
0.0
 40
10.0
 50
180.0
 51
0.0
  0
ARC
  5
88
  8
0
 62
     7
 10
177.8683275141709998
 20
202.8915054904234125
 30
0.0
 40
10.0
 50
0.0
 51
180.0
  0
ARC
  5
89
  8
0
 62
     7
 10
187.8683275141709998
 20
192.8915054904234125
 30
0.0
 40
10.0
 50
0.0
 51
90.0
  0
ARC
  5
8A
  8
0
 62
     7
 10
197.8683275141709998
 20
182.8915054904234125
 30
0.0
 40
10.0
 50
180.0
 51
90.0
  0
LINE
  5
8B
  8
0
 62
     7
 10
19.1337161890401184
 20
67.25709279175814
 30
0.0
 11
59.1337161890401219
 21
67.25709279175814
 31
0.0
  0
LINE
  5
8C
  8
0
 62
     7
 10
59.1337161890401219
 20
67.25709279175814
 30
0.0
 11
68.0972887043833737
 21
102.8237681068086005
 31
0.0
  0
LINE
  5
8D
  8
0
 62
     7
 10
19.1337161890401184
 20
67.25709279175814
 30
0.0
 11
10.17014367369684
 21
102.8237681068086005
 31
0.0
  0
ARC
  5
8E
  8
0
 62
     7
 10
39.1337161890401219
 20
127.2570927917581969
 30
0.0
 40
10.0
 50
0.0
 51
180.0
  0
ARC
  5
8F
  8
0
 62
     7
 10
29.1337161890401184
 20
117.2570927917580974
 30
0.0
 40
10.0
 50
90.0
 51
180.0
  0
ARC
  5
90
  8
0
 62
     7
 10
19.1337161890401184
 20
107.2570927917580974
 30
0.0
 40
10.0
 50
90.0
 51
0.0
  0
ARC
  5
91
  8
0
 62
     7
 10
39.1337161890401219
 20
107.2570927917580974
 30
0.0
 40
10.0
 50
180.0
 51
0.0
  0
ARC
  5
92
  8
0
 62
     7
 10
39.1337161890401219
 20
127.2570927917581969
 30
0.0
 40
10.0
 50
0.0
 51
180.0
  0
ARC
  5
93
  8
0
 62
     7
 10
49.1337161890401219
 20
117.2570927917580974
 30
0.0
 40
10.0
 50
0.0
 51
90.0
  0
ARC
  5
94
  8
0
 62
     7
 10
59.1337161890401219
 20
107.2570927917580974
 30
0.0
 40
10.0
 50
180.0
 51
90.0
  0
LINE
  5
99
  8
0
 62
     7
 10
88.2034836309009336
 20
67.25709279175814
 30
0.0
 11
128.2034836309009052
 21
67.25709279175814
 31
0.0
  0
LINE
  5
9A
  8
0
 62
     7
 10
128.2034836309009052
 20
67.25709279175814
 30
0.0
 11
137.1670561462441071
 21
102.8237681068086005
 31
0.0
  0
LINE
  5
9B
  8
0
 62
     7
 10
88.2034836309009336
 20
67.25709279175814
 30
0.0
 11
79.2399111155576605
 21
102.8237681068086005
 31
0.0
  0
ARC
  5
9C
  8
0
 62
     7
 10
108.2034836309009052
 20
127.2570927917581969
 30
0.0
 40
10.0
 50
0.0
 51
180.0
  0
ARC
  5
9D
  8
0
 62
     7
 10
98.2034836309009336
 20
117.2570927917580974
 30
0.0
 40
10.0
 50
90.0
 51
180.0
  0
ARC
  5
9E
  8
0
 62
     7
 10
88.2034836309009336
 20
107.2570927917580974
 30
0.0
 40
10.0
 50
90.0
 51
0.0
  0
ARC
  5
9F
  8
0
 62
     7
 10
108.2034836309009052
 20
107.2570927917580974
 30
0.0
 40
10.0
 50
180.0
 51
0.0
  0
ARC
  5
A0
  8
0
 62
     7
 10
108.2034836309009052
 20
127.2570927917581969
 30
0.0
 40
10.0
 50
0.0
 51
180.0
  0
ARC
  5
A1
  8
0
 62
     7
 10
118.2034836309009052
 20
117.2570927917580974
 30
0.0
 40
10.0
 50
0.0
 51
90.0
  0
ARC
  5
A2
  8
0
 62
     7
 10
128.2034836309009052
 20
107.2570927917580974
 30
0.0
 40
10.0
 50
180.0
 51
90.0
  0
LINE
  5
A7
  8
0
 62
     7
 10
157.2732510727616955
 20
67.25709279175814
 30
0.0
 11
197.2732510727618092
 21
67.25709279175814
 31
0.0
  0
LINE
  5
A8
  8
0
 62
     7
 10
197.2732510727618092
 20
67.25709279175814
 30
0.0
 11
206.2368235881050111
 21
102.8237681068086005
 31
0.0
  0
LINE
  5
A9
  8
0
 62
     7
 10
157.2732510727616955
 20
67.25709279175814
 30
0.0
 11
148.3096785574184082
 21
102.8237681068086005
 31
0.0
  0
ARC
  5
AA
  8
0
 62
     7
 10
177.2732510727618092
 20
127.2570927917581969
 30
0.0
 40
10.0
 50
0.0
 51
180.0
  0
ARC
  5
AB
  8
0
 62
     7
 10
167.2732510727616955
 20
117.2570927917580974
 30
0.0
 40
10.0
 50
90.0
 51
180.0
  0
ARC
  5
AC
  8
0
 62
     7
 10
157.2732510727616955
 20
107.2570927917580974
 30
0.0
 40
10.0
 50
90.0
 51
0.0
  0
ARC
  5
AD
  8
0
 62
     7
 10
177.2732510727618092
 20
107.2570927917580974
 30
0.0
 40
10.0
 50
180.0
 51
0.0
  0
ARC
  5
AE
  8
0
 62
     7
 10
177.2732510727618092
 20
127.2570927917581969
 30
0.0
 40
10.0
 50
0.0
 51
180.0
  0
ARC
  5
AF
  8
0
 62
     7
 10
187.2732510727616955
 20
117.2570927917580974
 30
0.0
 40
10.0
 50
0.0
 51
90.0
  0
ARC
  5
B0
  8
0
 62
     7
 10
197.2732510727618092
 20
107.2570927917580974
 30
0.0
 40
10.0
 50
180.0
 51
90.0
  0
LINE
  5
20064
  8
0
 62
     7
 10
54.2431740790484582
 20
2.4457141248028331
 30
0.0
 11
94.2431740790484582
 21
2.4457141248028331
 31
0.0
  0
LINE
  5
20065
  8
0
 62
     7
 10
94.2431740790484582
 20
2.4457141248028331
 30
0.0
 11
103.2067465943917028
 21
38.0123894398533366
 31
0.0
  0
LINE
  5
20066
  8
0
 62
     7
 10
54.2431740790484582
 20
2.4457141248028331
 30
0.0
 11
45.2796015637051781
 21
38.0123894398533366
 31
0.0
  0
ARC
  5
20067
  8
0
 62
     7
 10
74.2431740790484582
 20
62.4457141248028904
 30
0.0
 40
10.0
 50
0.0
 51
180.0
  0
ARC
  5
20068
  8
0
 62
     7
 10
64.2431740790484582
 20
52.4457141248028478
 30
0.0
 40
10.0
 50
90.0
 51
180.0
  0
ARC
  5
20069
  8
0
 62
     7
 10
54.2431740790484582
 20
42.445714124802862
 30
0.0
 40
10.0
 50
90.0
 51
0.0
  0
ARC
  5
2006A
  8
0
 62
     7
 10
74.2431740790484582
 20
42.445714124802862
 30
0.0
 40
10.0
 50
180.0
 51
0.0
  0
ARC
  5
2006B
  8
0
 62
     7
 10
74.2431740790484582
 20
62.4457141248028904
 30
0.0
 40
10.0
 50
0.0
 51
180.0
  0
ARC
  5
2006C
  8
0
 62
     7
 10
84.2431740790484582
 20
52.4457141248028478
 30
0.0
 40
10.0
 50
0.0
 51
90.0
  0
ARC
  5
2006D
  8
0
 62
     7
 10
94.2431740790484582
 20
42.445714124802862
 30
0.0
 40
10.0
 50
180.0
 51
90.0
  0
ENDSEC
  0
EOF
